Oops, an error
Loading. Please wait.

No Soy Yo Chords

12 views 3 this week
no commentswrite comment
1 2 3 4 5
3 more votes to show rating
add to favorites
launch autoscroll
font size
0
reset
transpose
0
reset
display chords
guitar tuner
×
Best way to learn
"No Soy Yo"
Autoscroll
slow
fast
+/-
esc
set tempo
stop
Intro: Bm-F#m-A 

(Lo toca en cuartas con slide)


e|-------------|--------|-------------||
B|-------------|--------|-------------||
G|--2--/-4---4-|--------|-------------||
D|--2--/-4---4-|--2-/-4-|-/4-/2-/4-/7-||
A|-------------|--2-/-4-|-/4-/2-/4-/7-||
E|-------------|--------|-------------||

Bm          F#m
Le he pedido tanto a dios
A             Bm
y esperé el milagro
Bm             F#m
fui en busca de algo
A           Bm
que anestesie este dolor,
Bm         F#m
me alejé de la ciudad,
A           Bm
lejos del calvario,
Bm      F#m        E 
pero sin ella no soy yo

G      D           A 
Y una vez más, solos vos y yo
G      D                 Bm
una vez más, que linda sensación

Anduve solo en la ciudad hambrienta
crucé las fronteras
 pero no encontré la paz
En la calle me peleé
y he sido un cobarde
pero sin ella no soy yo

G       D    A                      SoM-D 
Y una vez más, besos que saben a fuego
               C#m
que linda sensación
e|----------------------------------------||
B|----------------------------------------||
G|----------------------------------------||
D|----------------------------------------||
A|------4----2--------------4------------4||
E||------------------4----2----0----2-----||

Aca modula la cancion,sube todo el tema una Nota

C#m         G#m
Le he pedido tanto a dios
B            C#m
y esperé el milagro
C#m            G#m    B          C#m
fui en busca de algo que anestesie este dolor
C#m          G#m
con el diablo me embriagué
B            C#m
con la muerte me acosté
C#      G#m       F# 
pero sin ella no soy yo

A        E   B                       A -E 
Y una vez más, besos que saben a fuego
B                 A -E 
me gusta mucho más
B 
ese peligroso juego
A        E         C#m
que cada vez me pega más
e|---------------------------------------------||
B|---------------------------------------------||
G|---------------------------------------------||
D|---------------------------------------------||
A|------4----2-----------------------4---------||
E|----------------4----2----0----2-------------||


Y una vez más, besos que saben a fuego
me gusta mucho más
ese peligroso juego
que cada vez me quema más

P.D:
La intro me falto un pedacito que hace un dibujito antes de entrar
pero bueno el slide no es mi fuerte,jeje y el solo creo que esta
 sobre Do#m y LaM
Suggest correction
Give kudos to tab author, rate the tab!
1 2 3 4 5
comments
print report bad tab
guest
You may want to rate the tab now too:
select rating
Wanna post a correction for this tab? Suggest correction