Oops, an error
Loading. Please wait.

Paranoia 26 Tab

12 views 1 this week
no commentswrite comment
1 2 3 4 5
3 more votes to show rating
add to favorites
launch autoscroll
font size
0
reset
how to read this tab
guitar tuner
Autoscroll
slow
fast
+/-
esc
set tempo
stop
Help us to improve Ultimate-Guitar.com Take our survey!
×
INTRO (B5)


e|----------------------------------------------------------------|
B|----------------------------------------------------------------|
G|-(4)----4-4-4X--4X---4--2--4--(4)-----4-4-4--4X--4-4-2--(4)-----|
D|-(4)----4-4-4X--4X---4--2--4--(4)-----4-4-4--4X--4-4-2--(4)-----|
A|-(2)--0-2-2-2X----------------------0-2-2-2-------------(2)-----|
E|----------------------------------------------------------------|


-------------------------------------------------------------------------
Verso:
B5
Paranoia 26
Paranoia especial
es deliciosa y te intoxica

----------------------------------------------------------------------
Pre estribillo:

A5             D5
Te esta matando
A5               D5
Te esta sepultando

     A5        D5
e|---------------------|
B|---------------------|
G|-2-2-2-2--7-7-7-7-7--|
D|-2-2-2-2--7-7-7-7-7--|
A|-0-0-0-0--5-5-5-5-5--|
E|---------------------|

--------------------------------------------------------------------------
Verso:
B5
Va consumiendo tu dignidad
Paranoia entre vos y yo
La mierda santa y la corrupcion

------------------------------------------------------------------------
Pre estribillo:

A5             D5
Estas perdido
A5               D5
solo estas perdido

     A5        D5
e|---------------------|
B|---------------------|
G|-2-2-2-2--7-7-7-7-7--|
D|-2-2-2-2--7-7-7-7-7--|
A|-0-0-0-0--5-5-5-5-5--|
E|---------------------|
---------------------------------------------------------------------------
Verso:
B5
Se pone oscuro a tu alrededor

---------------------------------------------------------------------------
Pre estribillo:

A5             D5
Por tu camino
A5               D5
No tiene sentido   parar

---------------------------------------------------------------------------
Estribillo
E5       D5      A5
Sin nada que perder
E5     D5 A5
Paranoia 26
E5      D5    A5
de nada sirve parar


e|-------------------------------------|
B|-------------------------------------|
G|-9-9-9-9-9-9-9-9--7-7-7-7-2-2-2-2----|
D|-9-9-9-9-9-9-9-9--7-7-7-7-2-2-2-2----|
A|-7-7-7-7-7-7-7-7--5-5-5-5-0-0-0-0----|
E|-0-0-0-0-0-0-0-0---------------------|

--------------------------------------------------------------------------


                  (B/E)
e|----------------------------------------------|
B|----------------------------------------------|
G|----------------------------------------------|
D|-----2h3h2-----------2h3h2-------2h3h2--------|
A|-2-5-------5-2---2-5---------2-5-------5-2----|
E|----------------------------------------------|


-----------------------------------------------------------------------
Verso
B5
Paranoia criminal
                          (D5-E5)
Todos le huyen a la oscuridad
Tanta Miseria y discriminacion

--------------------------------------------------------------------
Pre estribillo:

A5             D5
Te estan mintiendo
A5               D5
Si te estan mintiendo

----------------------------------------------------------------------
Verso:
B5
escucha el ritmo de tu corazon

------------------------------------------------------------------------
Pre estribillo:

A5             D5
Por tu camino
A5               D5
No tiene sentido   parar

-------------------------------------------------------------------------
Estribillo
E5       D5      A5
Sin nada que perder
E5     D5 A5
Paranoia 26
E5      D5    A5
de nada sirve parar

-------------------------------------------------------------------------


                  (B/E)
e|----------------------------------------------|--------------|
B|----------------------------------------------|--------------|
G|----------------------------------------------|-7-7-7--9-9-9-|
D|-----2h3h2-----------2h3h2-------2h3h2--------|-7-7-7--9-9-9-|
A|-2-5-------5-2---2-5---------2-5-------5-2----|-5-5-5--7-7-7-|
E|----------------------------------------------|--------------|


-------------------------------------------------------------------------
Con wah wah lo poco que se entiende
Base Estribillo
    E5          D5  A5
e|-----------|--------------|----------|------10-----------------|
B|-----------|--------------|---10-----|--10b----12-10----(12b)--|
G|-(7b*)-(9b)|--7-9-9brh7-9-|9b----9-7-|---------------11--------|
D|-----------|--------------|----------|-------------------------|
A|-----------|--------------|----------|-------------------------|
E|-----------|--------------|----------|-------------------------|

e|--------------|-------17-17--17--17-17-17------(19b)-|
B|--(14b)-(12b)-|--(16b)--16-16--16--16-16-16-18-------|
G|--------------|--------------------------------------|
D|--------------|--------------------------------------|
A|--------------|--------------------------------------|
E|--------------|--------------------------------------|

---------------------------------------------------------------------
Verso:

B5
Paranoia 26
es deliciosa y te intoxica

-----------------------------------------------------------------------
Pre estribillo:

A5             D5
Estas perdido
A5               D5
No tiene sentido   parar

-----------------------------------------------------------------------
Estribillo
E5       D5      A5
Sin nada que perder
E5     D5 A5
Paranoia 26
E5      D5    A5
de nada sirve parar

-----------------------------------------------------------------------


                   (B/E)
e|----------------------------------------------|--------------|
B|----------------------------------------------|--------------|
G|----------------------------------------------|-7-7-7--9-9-9-|x2
D|-----2h3h2-----------2h3h2-------2h3h2--------|-7-7-7--9-9-9-|
A|-2-5-------5-2---2-5---------2-5-------5-2----|-5-5-5--7-7-7-|
E|----------------------------------------------|--------------|


-----------------------------------------------------------------------
(B/E)

DE NADA SIRVE DE NADA SIRVE DE NADA SIRVE PARAR
e|---------------------------------------|
B|---------------------------------------|
G|-9-9-9-9-9-9-9-9-9-9-9-9-9-9-9-9--(4)--|
D|-9-9-9-9-9-9-9-9-9-9-9-9-9-9-9-9--(4)--|
A|-7-7-7-7-7-7-7-7-7-7-7-7-7-7-7-7--(2)--|
E|-0-0-0-0-0-0-0-0-0-0-0-0-0-0-0-0-------|

FIN
Suggest correction
Give kudos to tab author, rate the tab!
1 2 3 4 5
comments
print report bad tab
guest
You may want to rate the tab now too:
select rating
Wanna post a correction for this tab? Suggest correction