Oops, an error
Loading. Please wait.

Si Supieras Tab

version 2
version 2

Whole song

7 views 1 this week
no commentswrite comment
1 2 3 4 5
3 more votes to show rating
add to favorites
launch autoscroll
font size
0
reset
how to read this tab
guitar tuner
Autoscroll
slow
fast
+/-
esc
set tempo
stop
Help us to improve Ultimate-Guitar.com Take our survey!
×
Solo le agregue una adaptacion para tocar la armonica con la guitarra
espero q este bien..

instrumental (DO - RE - DO**SOL)x 3  DO - SOL - DO - RE


      DO            RE        SOL
Si supieras, que ya morí de pena
           DO         RE        SOL
que en el pecho, el dolor ya termino
        DO      RE          DO       RE       SOL
con lo poco que queda de mi pobre y negro corazón


si supieras que la vida me ha tratado mal
que este mundo ya no me da alegrías
solo traga los pedazos que en el alma voy dejando caer

(adaptacion de armonica para guitarra)

 1|--------------------------------
 2|--------------------------------
 3|-5---4-5-7-----4-7-5-4----------  X2
 4|-------------5---------5---5----
 5|-------------------------7------
 6|--------------------------------

 1|-----------------------------------------------------------------
 2|-5-5-5-5-5-------------------------------------------------------
 3|-----------7-5-4-----4-7-5-4-----------4-------4-------4-5-7-7-7-
 4|-------------------5---------5---5---5---5---5---5---5-----------
 5|-------------------------------7---------------------------------
 6|-----------------------------------------------------------------


Solo tuve, que enfrentar tu ausencia
por las noches, llorando en soledad
tratando de esconder esta amargura para poder seguir

Mi vida, solo fue una gran pregunta
que aun hoy, no puedo contestar
si la muerte ha sido justa
con vos querido viejo solo Dios, sabrá responder.


<(aca de vuelta la adaptacion)>


Y ahora, en el hueco que dejaste
los recuerdos sepulte
y ahora, que vencí a la tristeza
tal vez... pueda decirte adiós

<(aca de vuelta la adaptacion y repite hasta el final)>


**: en la parte instrumental, después del Do, antes de
hacer Sol, hacer esta bajada:

1|-0--------3--
2|-1--------0--
3|-0--------0--
4|-2--------0--
5|-3--2--0--2--
6|----------3--
   DO      SOL
Suggest correction
Give kudos to tab author, rate the tab!
1 2 3 4 5
comments
print report bad tab
guest
You may want to rate the tab now too:
select rating
Wanna post a correction for this tab? Suggest correction