Oops, an error
Loading. Please wait.

Todavia Tab

version 2
version 2

Whole song

39 views 1 this week
no commentswrite comment
1 2 3 4 5
3 more votes to show rating
add to favorites
launch autoscroll
font size
0
reset
how to read this tab
guitar tuner
×
Best way to learn
"Todavia"
Autoscroll
slow
fast
+/-
esc
set tempo
stop
Intro

e---------------------------------
B---------------------------------
G---------7-----7-5-4--4p5h4------
D---5-----5---5-------------------      X4 veces
A---------------------------------
E---------------------------------

Verso
e---------------------------------
B---------------------------------
G---------7-----7-5-4--4p5h4------
D---5-----5---5-------------------     x2( esto se va tocando mientras
A---------------------------------         se empieza a cantar)
E---------------------------------


e--------------------------------------
B--------------------------------------
G---------7---------7---------4-4-5-7--
D---5-----5----4----4----2------------5-
A---------------------------------------
E---------------------------------------


e---------------------------------
B---------------------------------
G---------7-----7-5-4--4p5h4------
D---5-----5---5-------------------     x2( esto se va tocando mientras
A---------------------------------         se empieza a cantar)
E---------------------------------


e---------------------------------------
B---------------------------------------
G---------7---------7---------4-4-5-7---
D---5-----5----4----4----2------------5-
A---------------------------------------
E---------------------------------------


Estribillo: es recomendable hacerla arpegiado con esos acordes)

D                   Am              C
 y aca me ves, escapandole al fuego que sigue quemando.
D                   Am              C
 esa oracion, libertad, anciedad, un amor, soledad.
D            Am    C
 y asi vivi, mucho mejor ...


Verso: esta parte se ahce con los acordes con sejilla y tocando
       rapido las tres cuerdas de abajo


G               C     G                C
todavia siento ganas, de llamarla alguna vez,
 G                 Dsus4
y decirle que... cuando ella se fue,
 Em                  C
un viento me arranco de pie.

todavia que respiro, nena cuando salgo a nadar,
por un mar oscuro, donde todo es duro,
y el agua se hace cristal.


Estribillo: se hace tipo el verso anterior

D                   Am              C
 y aca me ves, escapandole al fuego que sigue quemando.
D                   Am              C
 esa oracion, libertad, anciedad, un amor, soledad.
D            Am    C
 y asi vivi, mucho mejor ...

Verso:

e---------------------------------
B---------------------------------
G---------7-----7-5-4--4p5h4------
D---5-----5---5-------------------     x2
A---------------------------------
E---------------------------------

e---------------------------------------
B---------------------------------------
G---------7---------7---------4-4-5-7---
D---5-----5----4----4----2------------5-
A---------------------------------------
E---------------------------------------

(luego se hace como en los versos qeu se toca rapido)

todavia que te quiero, y no quiero quererte otra vez
pero si con vos, tanto me aleje,
que vole y jamas regrese.

Solo:
no lo voy a poner porque a no ser que la quieran hacer igual,
no lo necesitan. Igualmente fijense qeu el solo qeu figura esta bueno

Estribillo:( otra vez aganlo rpaido con las ultimas tres cuerdas)

D                   Am              C
 y aca me ves, escapandole al fuego que sigue quemando.
D                   Am              C
 esa oracion, libertad, anciedad, un amor, soledad.
D            Am    C
 y asi vivi, mucho mejor ...


Espero que les halla gustado ya que es mi primera colaboración..
Cuakqueir duda a yuyoyuyin_93@
Suggest correction
Give kudos to tab author, rate the tab!
1 2 3 4 5
comments
print report bad tab
guest
You may want to rate the tab now too:
select rating
Wanna post a correction for this tab? Suggest correction