Oops, an error
Loading. Please wait.

Todos Y Yo No tab

16 views 3 this week
no commentswrite comment
1 2 3 4 5
3 more votes to show rating
add to favorites
×
Save as Personal and add changes to this tab that will be seen only by you. Learn more ›
×
You can save this tab as Personal to edit and correct it or add notes. All changes will be seen only by you. Learn more »
launch autoscroll
font size
0
reset
how to read this tab
guitar tuner
edit
Autoscroll
slow
fast
+/-
esc
set tempo
stop
/ = slide
h = ligado (pisar cuerda)
p = ligado (soltar cuerda)
b = bend (es arquear la cuerda para subir un
 medio tono o un tono etc depende cuanto la arquees)


Bueh antes q nadaa tiene q escucharlo
bien al tema porq capaz se pierden..
los punteos estan todos bien sacados ..
los revise bien jej ..
buenn el tema esta piola es un blues ligero ..
asiq cuando lo toquen
tranten de buskarle el estilo bluseroo..
pero les recomiendo q le de un toque personal
a todos los temas q hagan
por ejem la transcripcion esta es como suena
el tema pero yo lo toco un toque diferente.. densee un paseeito
por el mastil .. por la escalaadejen lugar a la imaginacion..!
los riffs de la segunda guitarra no los saque
porq no los escucho bien
pero como segunda guitarra queda muy bien un riff de blues
o rockanroll en notas 5tas
algo asi

    E                 A               E                  B
E]-------------------------------------------------------------
B]-------------------------------------------------------------
G]-------------------------------------------------------------
D]--9-9-11-9-9-9-11-9-----------------9-9-11-9-9-9-11-9--------
A]--7-7-7--7-7-7-7--7-7-7-9-7-7-7-9-7-7-7-7--7-7-7-7--7--9--9--
E]--------------------5-5-5-5-5-5-5-5--------------------7--7--


INTRO

E]------------------------7-9-7-10p9p7---7-
B]----5-7-8-8p7p5---5-7/9--------------9---
G]--6-------------6------------------------
D]-----------------------------------------
A]-----------------------------------------
E]-----------------------------------------

|-------12-14-15-15p14p12------12--12---
|-12/14-------------------14---13--13---
|---------------------------------------
|---------------------------------------
|---------------------------------------
|---------------------------------------

|-----7----7------------------------------
|--8h9--8h9--9-8-6----------9-11-12-11-9--
|------------------8-6--/10---------------
|-----------------------------------------
|-----------------------------------------
|-----------------------------------------

|----------9-12-11-----------------------
|-------11---------11-9-10-11-12--6p7----
|-10-11---------------9-10-11-12------8--
|----------------------------------------
|----------------------------------------
|----------------------------------------

RIFF 1 ( este se lo toca en todos los versos )

E]--7---7-7-------------------------7---7-7--------------
B]--8h9-9-8h9p------------10--------8h9-9-8h9p----6h7----
G]-------------9--------9----9-----------------9------8--
D]-------------------11--------11------------------------
A]-------------------------------------------------------
E]-------------------------------------------------------

|---7---7-7-------------------------7---7-7-----------------
|---8h9-9-8h9p------------10--------8h9-9-8h9p-----9-10-11--
|--------------9--------9----9-----------------9---9-10-11--
|--------------------11--------11---------------------------
|-----------------------------------------------------------
|-----------------------------------------------------------


(riff 1)
E                        A
Mariposas rastreando marineros depravados
       E                      B
que sacien su sed de amor masoquista
E                             A
Grandulones narcisistas encontrándose con huecas
         E                B
en las discos de alta arlkurnia


En esta parte la primera guitarra asi

    E       G#      A       F#      E       G#      A  B   E

E]--0--0----4--4----5--5----2--2----0--0----4--4----5--7---12--
B]--0--0----4--4----5--5----2--2----0--0----4--4----5--7---12--
G]-------------------------------------------------------------
D]-------------------------------------------------------------

|----6h7--------
|--------8------
|---------------
|---------------

E                            G#
Compadritos borrachines jugando la ultima carta
        A                 F#
por un trago mas en la cantina
     E                      G#
Funcionarios negociando a través de un celular
            A         B  E
alguna que otra treta ilegal.


(riff 1)
E                        A
Marihuanos volados estallando en carcajadas
       E                  B
en el interior de una patrulla
E                        A
Maridos ejemplares engañando a sus mujeres
       E                  B
en algún oculto hotel.


    E       G#      A       F#      E       G#      A  B   E

E]--0--0----4--4----5--5----2--2----0--0----4--4----5--7---12-
B]--0--0----4--4----5--5----2--2----0--0----4--4----5--7---12-
G]------------------------------------------------------------
D]------------------------------------------------------------

|------------
|---9-10-11--
|---9-10-11--
|------------


E                            G#
Hampones ingeniosos intentando enlazar
        A                 F#
las piezas de un brillante plan
     E                      G#
Jóvenes enajenados por potentes rocanrroles
            A         B  E
saltando los dos en un recital


En el estribillo pueden hacer asi..

    E     A     B                  E   A    B

E]--0-----5-----7-7--------7-7-----0---5----7--6/7-7--6/7-7--
B]--0-----5-----7-7--------7-------0---5----7--6/7-7--6/7-7--
G]-------------------9-7-9-----------------------------------
D]-----------------------------------------------------------


  A    B     E           A    B    E

--5----7-----12--12------5----7----12-----------
--5----7-----12--12------5----7----12----6h7----
---------------------------------------------8--
------------------------------------------------

E                            A                     B
Porque todos menos yo tienen algo para hacer esta noche
       E              A                  B
Porque todos y yo no, no lo puedo resistir.
        A                                    E
Es que una mala mujer me abrió una profunda herida
       A                 B                E
Me dejó como un imbécil lamentando su partida.


solo 1  E - A - B


E]------------5-5-------5---5---------------7-7-------7---7---
B]--7-7b-5----5-----------5--------7-7b-5---7---5---5---7-----
G]---------6------7-5-7-------------------6-------7----------- x2
D]------------------------------------------------------------
A]------------------------------------------------------------


|---------------------------------------
|-12-----12-----12-------------12-------
|----12b----12b----12b-------9----12b---
|----------------------10/11------------
|---------------------------------------

|---------------7-7-------7---7--
|-12-----12-----7---5---5---7----
|----12b---12b--------7----------
|--------------------------------

1------------------------------------------------------
|-12-----12-----12-------------12--------12-----12-----
|----12b----12b----12b-------9----12b-------12b---12b--
|----------------------10/11---------------------------
|------------------------------------------------------

|-------------------------
|--12/14-11/12-7/9-5/7-5--
|-------------------------
|-------------------------
|-------------------------

E                        A
Jugadores enviciados entregándole
       E                      B
sus casas a un malvado prestamista

(en esta estrofa el riff 1 comienza aca! y hace asi)

|----7---7-7-------------------------7---7-7-----------------
|----8h9-9-8h9p------------10--------8h9-9-8h9p-----9-10-11--
|---------------9--------9----9-----------------9---9-10-11--
|---------------------11--------11---------------------------
|------------------------------------------------------------
|------------------------------------------------------------

E                        A
Paranoicos encerrados esperando a
                   E               B
luci que llegue y les traiga de la fina


   E       G#      A       F#      E       G#      A  B   E

E]--0--0----4--4----5--5----2--2----0--0----4--4----5--7---12-
B]--0--0----4--4----5--5----2--2----0--0----4--4----5--7---12-
G]------------------------------------------------------------
D]------------------------------------------------------------

|-----6h7--------|
|---------8------|
|----------------|
|----------------|


E                            G#
Jóvenes politizados discutiendo
            A                 F#
sobre una posible patria socialista
     E                      G#
Bolicheros descarados regateando
                       A         B  E
diez centavos a una pobre banda de rimel blues.

Policías corruptos sobornando prostitutas
al costado de alguna autopista
Y en el baño de alguna estación de trenes
dos hombres confiesan su amor a primera vista.
Artistas delirantes esperando un poco inquietos
que una dama les de su bendición
Mientras tanto en un boliche de la crema
Maradona esta anunciando su enésimo adiós.


Porque todos menos yo tienen algo para hacer esta noche.
Porque todos y yo no, no lo puedo resistir.
Es que una mala mujer me abrió una profunda herida
Me dejo como un idiota lamentado su partida.
Porque todos menos yo tienen algo para hacer esta noche.
Porque todos y yo no, no lo puedo resistir.
Es que una mala mujer me abrió una profunda herida
Me dejo como un idiota lamentado su partida.

solo 2     E - A - B


E]--4p2p0---0----------------------------------7-7-------7---7-|
B]--------2---0-0h2-2/5-7-7b-5---12-----12-----7---5---5---7---|
G]-----------------------------6----12b----12b-------7---------| x2
D]-------------------------------------------------------------|
A]-------------------------------------------------------------|

|---12-12-12--12-------------------------
|---12-12-12--12----10-7h9p7-----5-7b-5--
|----------------------------6-4---------
|----------------------------------------

|----------12-----12--------------|
|---5/12h14--12h14---14-12-9h10p9-|
|-6-------------------------------|
|---------------------------------|


|-----------------------------------------------9--9--|
|-----5-7b-5-7-5---5-7b-5---5-7-5-5-----5-------9--9--|
|-6-4------------6--------6---------6-4---------------|
|-----------------------------------------------------|


F#                            B                     C#
Porque todos menos yo tienen algo para hacer esta noche
       F#              B                 C#
Porque todos y yo no, no lo puedo resistir.
        B                                    F#
Es que una mala mujer me abrió una profunda herida
       B                 C#
Me dejó como un imbécil lamentando
       B                 C#
Me dejo como un imbécil lamentando.....
       B                 C#
Me dejo como un imbécil lamentando.....
       B                 C#              F#
Me dejo como un idiota lamentando su partida.


E]---1/2-2--1/2-2--1/2-2-----------|
B]---1/2-2--1/2-2--1/2-2-----------|
G]------------------------4-2h3----|
D]------------------------------4--|


 solo final  F# - B - C#


E]-11-11-11-------11-11----11----11---------11--||
B]-11-11-11-------11----11----11------------11--||
G]----------13-11---------------------13-11-----||
D]----------------------------------------------||
A]----------------------------------------------|| x2
                                                 |
|----------------11--------------------|         |
|----------------11--------------------|         |
|--13-13---13-11----13-11----11-13-----|         |
|-------------------------13-----------|         |
                                                 /

|---7-------7--7-------7---------14----14-------14----14--|
|---7-------7--7-------7---12/14----14----12/14----14-----|
|-----9-7-9------9-7-9------------------------------------|
|---------------------------------------------------------|
|---------------------------------------------------------|


|--7----------------------------|
|--7-------7-----9-----9-----11-|
|----9-7h8---/10---/10---/11----|
|-------------------------------|
|-------------------------------|


|------------------------------------|     |----14---14--|
|--------7------9-------9------11----|     |----14---14--|
|----7/8---8/10----9/10---10/11------| x2  |-------------|
|------------------------------------|     |-------------|


Temaaazooo de guasooones locoo!
esperoo q les haya gustado..
cualquier duda consejo o critica, mails a acanosequepone@
Gracias pegarlee un ojo a la transcripcion :D
Calificaaala!

            
            
Suggest correction
Creating personal tab
Creating personal tab
You can edit any tab online and save it as your Personal.

You can edit, replace or remove any tab part or add personal notes – all changes will be seen only by you.

Personal tabs can be accessed anytime from any device, even offline.
Learn more »
Give kudos to tab author, rate the tab!
1 2 3 4 5
comments
print report bad tab
guest
Wanna post a correction for this tab? Suggest correction