Oops, an error
Loading. Please wait.

Toro Rojo Tab

15 views 9 this week
no commentswrite comment
1 2 3 4 5
3 more votes to show rating
add to favorites
launch autoscroll
font size
0
reset
how to read this tab
guitar tuner
Autoscroll
slow
fast
+/-
esc
set tempo
stop
Help us to improve Ultimate-Guitar.com Take our survey!
×
Bueno, el tema que da nombre al último disco de esta gran banda...
Me faltó sacar el solo que es todo con slide, próximamente lo sacaré
o si lo sacan ustedes copensé y mandenmeló...

Aclaraciones:
Los riffs los puse abajo de todo.
La forma de tocar B en los versos la llamé B* y está con los riffs.
La mayoría de los punteos son con slide "/" (arrastrar).
Dudas, sugerencias y correcciones a mi mail...

Saludos


=======================================================

TORO ROJO
(Guasones)


Intro: Riff 1 x2


 B*              B*              F# [Riff 2]
Ese viejo toro rojo no quiere llegar,
 B*              B*              F# [Riff 2]
ese viejo toro rojo no quiere llegar,
 B*                 B*                 F# [Riff 2]
mi cuerpo se está cayendo, mi alma no está
     C# [Riff 3]   B                          [Riff 1]
Y yo soooooolo estoy, perdiendo un poco el control

  B*              B*            F# [Riff 2]
Ese viejo toro rojo no quiere venir,
 B*              B*             F# [Riff 2]
ese viejo toro rojo se ríe de mí,
B*                 B*                 F# [Riff 2]
me dejaste un poco roto, no puedo pensar

     C# [Riff 3]  B                            [Riff 4]
Y yo soooooolo estoy, perdiendo un poco el control
perdiendo un poco el control,
                     [Riff 5]
perdiendo un poco el control... sí, sí


SOLO (Con Slide, como todo el tema)


     C# [Riff 3]  B                            [Riff 4]
Y yo soooooolo estoy, perdiendo un poco el control
perdiendo un poco el control,
                     [Riff 4]
perdiendo un poco el control...
perdiendo un poco el control...
                     [Riff 5]
perdiendo un poco el control...
    C# [Riff 3]          B
Y yo soooooo, yo solo estoy, perdiendo un poco el control...


=======================================================


  Riff 1

e|--------------------------------------------|
B|--------------------------------------------|
G|--------6/8~~-6/8/6-------------6/8~-6/8/6--|
D|--7/6/4-------------7/6/4-7/6/4-------------|
A|--------------------------------------------|
E|--------------------------------------------|

    B*
e|--------------------------|
B|--2/4~~~~~~---------------|
G|--2/4~~~~~~---------------|
D|--------------------------|
A|--------------------------|
E|--------------------------|

  Riff 2

e|--------------------------|
B|--7-5---------------------|
G|------9/8-6-6/8-----------|
D|--------------------------|
A|--------------------------|
E|--------------------------|

  Riff 3

    C#                                 B
e|-------4---4------------4---4-------------2---2---------|
B|-------------6----------------6-----------------4-------|
G|--4/6~---6-----6---4/6~---6------6---2/4~---4-----4-----|
D|--------------------------------------------------------|
A|--------------------------------------------------------|
E|--------------------------------------------------------|

  Riff 4

  F#5    A5  F#5   A5 B5   A5  B5
e|----------------------------------------|
B|----------------------------------------|
G|-----------------2--4--4--2--4--4-------|
D|--4--4-/7--4--4--2--4--4--2--4--4-------|
A|--4--4-/7--4--4--0--2--2--0--2--2-------|
E|--2--2-/5--2--2-------------------------|


  Riff 5

  F#5    A5  F#5
e|-------------------|
B|-------------------|
G|-------------------|
D|--4--4-/7--4--4----|
A|--4--4-/7--4--4----|
E|--2--2-/5--2--2----|

=======================================================
Suggest correction
Give kudos to tab author, rate the tab!
1 2 3 4 5
comments
print report bad tab
guest
You may want to rate the tab now too:
select rating
Wanna post a correction for this tab? Suggest correction