Oops, an error
Loading. Please wait.

Voy A Gritar Tab

1 view 1 this week
no commentswrite comment
1 2 3 4 5
3 more votes to show rating
add to favorites
launch autoscroll
font size
0
reset
how to read this tab
guitar tuner
×
Best way to learn
"Voy A Gritar"
Autoscroll
slow
fast
+/-
esc
set tempo
stop
D
Hoy voy a gritar más que ayer

Hoy voy a gritar más que ayer
G
 Y pedirle a este mundo que deje de pisar
          D
Cuando algunas de nuestras cabezas se quiere asomar


         A
A descubrir como son las cosas de la realidad
             G                                    A
Que la injusticia es moneda corriente de mi sociedad
       G                                           A
Y entender que lo único que reina en este pueblo es la desigualdad


D
Hoy voy a gritar más que ayer

Hoy voy a gritar más que ayer
        G
Para pedirle a esta gente indecente que deje de jugar

Que los caminos que ellos venden yo no los pienso pagar


               A
Mientras la iglesia decide que es el bien y el mal
         G                                      A
Curas y monjas arman una orgía en el salón central
        G                                          A
Y entender que lo único que vende en este pueblo es la divinidad


Las bases de los Riffs que usa Tedesco son:

D:

e------------------------/--------10-
b-----------7-8-7--------/-8-7-------
g---------7----------x3--/-----7-----
d---7-7h9----------------/-----------
a------------------------/-----------
e------------------------/-----------

G:

e--------------------/---------
b--------------------/-------8-
g-----------4-5-4----/-5-4-----
d---------5----------/-----5---
a---5-5h7----------x3/---------
e--------------------/---------


en A lo deja sonando y juegan los vientos.
Suggest correction
Give kudos to tab author, rate the tab!
1 2 3 4 5
comments
print report bad tab
guest
You may want to rate the tab now too:
select rating
Wanna post a correction for this tab? Suggest correction