Oops, an error
Loading. Please wait.

El Blues De La Oscuridad Tab

6 views 1 this week
no commentswrite comment
1 2 3 4 5
3 more votes to show rating
add to favorites
launch autoscroll
font size
0
reset
how to read this tab
guitar tuner
Autoscroll
slow
fast
+/-
esc
set tempo
stop
Help us to improve Ultimate-Guitar.com Take our survey!
×
BAJO

1 --------------------------------------------------
2 --------------------------------------------------
3 --------------------------------------------------
4 --6--5--3--0--0-0--0-0--0--6--5--3--0--0-0--0-0--0

Siempre con la misma base hasta llegar al estribillo.

BAJO-ESTRIBILLO

1 --------------------------------------------------
2 --------------------------------------------------
3 --3--3-3--3-3--3-5-3------------------------------
4 ----------------------6-5--5-5---5-5-5-6-5-3-0----


GUITARRA

1 --12--17--12--17--12--17------------------------------
2 ------------------------------------------------------
3 ------------------------------------------------------
4 ---------------------------------5-------------7-8----
5 ------------------------------------------------------
6 ---------------------------0-0-0-----0--0-0-0---------

1 ---------------------------------------------------------
2 ---------------------------------------------------------
3 ---------------------------------------------------------
4 ---------5-------------7-8------------5------------7-8---
5 ---------------------------------------------------------
6 --0-0-0-----0--0-0-0-----------0-0-0-----0--0-0-0--------

1 ---------------------------------------------------------
2 ---------------------------------------------------------
3 ---------------------------------------------------------
4 ---------5-------------7-8------------5------------7-8---
5 ---------------------------------------------------------
6 --0-0-0-----0--0-0-0-----------0-0-0-----0--0-0-0--------

1 ---------------------------------------------------------
2 ---------------------------------------------------------
3 ---------------------------------------------------------
4 ---------5-------------7-8------------5------------7-8---
5 ---------------------------------------------------------
6 --0-0-0-----0--0-0-0-----------0-0-0-----0--0-0-0--------

1 ---------------------------------------------------------
2 ---------------------------------------------------------
3 ---------------------------------------------------------
4 ---------5-------------7-8-----7-8-7--5-7-5--3-5-3-------
5 ---------------------------------------------------------
6 --0-0-0-----0--0-0-0--------------------------------3-0--


1 -------------------------
2 ------------------------- 
3 -------------------------
4 --2--2-2--2-2--2--8-7-5--     4 Veces
5 --2--2-2--2-2--2--8-7-5--
6 --0--0-0--0-0--0--6-5-3--


ESTRIBILLO

1 ------------------------------------------
2 ------------------------------------------
3 --5--5-5--5-5--5-5-7-5--------------------
4 --5--5-5--5-5--5-5-5-5-7--7-7--7-7--7-8-7-5
5 --3--3-3--3-3--3-3-5-3-7--7-7--7-7--7-8-7-5
6 -----------------------5--5-5--5-5--5-6-5-3


----------------------------------------------------------------
----------------------------------------------------------------


CANTO

Siempre con esta base hasta llegar al estribillo.

1 -------------------------
2 ------------------------- 
3 -------------------------
4 --2--2-2--2-2--2--8-7-5--     
5 --2--2-2--2-2--2--8-7-5--
6 --0--0-0--0-0--0--6-5-3--

                                  

La oscuridad         
Llegó a mi almohada  
Estoy solo aquí      
Y no siento nada

La oscuridad
Está dentro mío
Y puedo escuchar
El grito en mis oídos


ESTRBILLO

No quiero morir
Sin luz interior
Quiero vivir
Y sin sufrir


La oscuridad
Me quiere herir
Yo no puedo mas
Y quiero salir

La oscuridad 
Me está agotando
No puedo hacer nada
Estoy como atado

ESTRIBILLO
Suggest correction
Give kudos to tab author, rate the tab!
1 2 3 4 5
comments
print report bad tab
guest
You may want to rate the tab now too:
select rating
Wanna post a correction for this tab? Suggest correction