Oops, an error
Loading. Please wait.

La Droga Tab

47 views 3 this week
no commentswrite comment
1 2 3 4 5
3 more votes to show rating
add to favorites
launch autoscroll
font size
0
reset
how to read this tab
guitar tuner
×
Best way to learn
"La Droga"
Autoscroll
slow
fast
+/-
esc
set tempo
stop
Buenas este es mi primer aporte de una agrupación vieja guardia
del punk Español, también conocida como Escorbuto Crónico, espero
me quede bien y lo disfruten.

La droga-Guerrilla Urbana

[Intro]

6-------77----77----77----775-/7--
5-------997---999---997---997-/9--
4---------9-----11----9-----------   (BIS)
3---------------------------------
2---------------------------------
1---------------------------------


(riff)Verso1

6------------888888333333-----------
5------777777101010555555555666777--
4------999999------------777888999--
3-----------------------------------
2-----------------------------------
1-----------------------------------

5Mi
mira quien beneficia y
5Do
veras el culpable y a las
5Sol
victimas ultimas del
5Re     5Re#
negocio infame
5Mi
que prefiere el estado
5Do
jovenes armados
5Sol
luchando en la calle contra
5Re     5Re#
dios y contra el amo
5Mi
¿o zombis sumisos
5Do
expectros urbanos
5Sol
que arrastran su miseria del
5Re     5Re#
solar al descampado

(riff)coro

6---------33----------33----------------
5-----7---553/2---7---552/3-/2-/3/10/7--
4-----9-----5/4---9-----4/5-/4-/5/12/9--
3---------------------------------------
2---------------------------------------
1---------------------------------------

5Mi--5Sol(x2)-5Do/*
*5Si                   5Mi-5Sol(x2)-5Si/*
no queremos evadirnos
*5Do               /5Si
ni un minuto de su mundo
       /5Do
queremos gasolina pa
/5Sol       /5Mi
prenderle fuego

riff adicional al final del segundo coro.

6------333--------333--22---333--------333------
5----33555555/7-335552244-33555555/7-335555-/7--
4----55---777/9-55---44---55---777/9-55---7-/9--
3-----------------------------------------------
2-----------------------------------------------
1-----------------------------------------------

bueno estos son los riff básicos, recuerden escuchar el tema para
tocarlo y coincidir los acordes...gracias
Suggest correction
Give kudos to tab author, rate the tab!
1 2 3 4 5
comments
print report bad tab
guest
You may want to rate the tab now too:
select rating
Wanna post a correction for this tab? Suggest correction