Oops, an error
Loading. Please wait.

Combo Final Bass Tab

23 views 1 this week
no commentswrite comment
1 2 3 4 5
3 more votes to show rating
add to favorites
launch autoscroll
font size
0
reset
guitar tuner
×
Best way to learn
"Combo Final"
Autoscroll
slow
fast
+/-
esc
set tempo
stop
Intro
G|--------------------------------------|
D|-----------------------------55555555-|
A|-55555555x----------------------------|
E|------------5555555-77777777----------|

G|--------------------------------------|
D|-----------------------------55555555-|
A|-55555555x----------77777777----------|
E|------------5555555-------------------|

Verse
"Anoche la ví pasar..."
G|-------------------------------------|
D|-------------------------------------|
A|-22222222-55555555----------77777770-|
E|-------------------55555555----------|

"Jamas olvidaré lo que me hizo ayer..."
G|-------------------------------------|
D|-------------------------------------|
A|-22222222/55555555/77777777-99999999-|
E|-------------------------------------|

"Su cara se transformó..."
G|---------------------------------------|
D|---------------------------------------|
A|-22222222-55555555-------------7x---7x-|
E|-------------------55555555x-----------|

"Su puño cerrado avanzó..."
G|-----------------------------------------------------|
D|-----------------------------------------------------|
A|-22222222-55555555-77777777-77777777-----------------|
E|-------------------------------------22222222-22222x-|

Chorus
"Nak Nak, quien toka la puerta..."
G|----------------------------------------------------------------|
D|----------------------------------------------------------------|
A|---------------5-55-5557-77-7772-22-2222-22-2225-55-5557-77-777-|
E|-33-3333-33-333-------------------------------------------------|

Verse
"No es facil andar..."
G|-------------------------------------|
D|-------------------------------------|
A|-22222222-55555555----------77777770-|
E|-------------------55555555----------|

"Se que mañana andarás por ahí..."
G|-------------------------------------|
D|-------------------------------------|
A|-22222222/55555555/77777777-99999999-|
E|-------------------------------------|

"Yo se lo que quieres tu..."
G|---------------------------------------|
D|---------------------------------------|
A|-22222222-55555555-------------7x---7x-|
E|-------------------55555555x-----------|

"Amiga lo siento pero a mí.."
G|-----------------------------------------------------|
D|-----------------------------------------------------|
A|-22222222-55555555-77777777-77777777-----------------|
E|-------------------------------------22222222-22222x-|

Chorus
"Nak Nak, quien toka la puerta..."
G|----------------------------------------------------------------|
D|----------------------------------------------------------------|
A|---------------5-55-5557-77-7772-22-2222-22-2225-55-5557-77-777-|
E|-33-3333-33-333-------------------------------------------------|

"Si yo no sabía..."
G|----------------------------------------------------------------|
D|-55-5555-55-555-------------------------------------------------|
A|---------------5-55-5557-77-7772-22-2222-22-2225-55-5557-77-777-|
E|----------------------------------------------------------------|

Bridge
"Si tengo que dejar..."

G|---------------------------------------------
D|-44444444-44444444-55555555-55555555---------
A|-------------------------------------55555555
E|---------------------------------------------
----------------------------|
----------------------------|
55555555-44444444-4x--------|
----------------------------|"Si tengo que arrancar..."
G|----------------------------------------------------
D|----------------------------------------------------
A|-22x--2~--2-22~-0-------------2~---55x--5~--5-5---5-
E|------------------33x--3~--3-3---3-------------5~---
-------------------|
--------------9999-|
7777777-7777-------|
-------------------|

G|-------------------------------------|
D|-44444444-44444444-44444444-4x-------|
A|-------------------------------------|
E|-------------------------------------|

G|-------------------------------44444444-4444444-----------------|
D|-55-5555-55-555-------------------------------------------------|
A|---------------5-55-5557-77-777----------------5-55-5557-77-777-|
E|----------------------------------------------------------------|

Chorus
"Nak Nak, quien toka la puerta..."
G|----------------------------------------------------------------|
D|-55-5555-55-555-------------------------------------------------|
A|---------------5-55-5557-77-7772-22-2222-22-2225-55-5557-77-777-|
E|----------------------------------------------------------------|

"Si yo no sabía..."
G|----------------------------------------------------------------|
D|-55-5555-55-555-------------------------------------------------|
A|---------------5-55-5557-77-7772-22-2222-22-2225-55-5557-77-777-|
E|----------------------------------------------------------------|

"No tengo la culpa..."
G|---------------------------------4444-2222-
D|-55555555-5555555--------------------------
A|-----------------5-55-5557-77-777----------
E|-------------------------------------------

0000--------------------------------------|
----444-----------------------------------|
-------5-555-557-777-775-555-55-7-77-7-7x-|
------------------------------------------|
Suggest correction
Give kudos to tab author, rate the tab!
1 2 3 4 5
comments
print report bad tab
guest
You may want to rate the tab now too:
select rating
Wanna post a correction for this tab? Suggest correction