Oops, an error
Loading. Please wait.

Eso Es Lo Que Soy Tab

by Guffi
128 views 1 this week
no commentswrite comment
1 2 3 4 5
2 more votes to show rating
add to favorites
launch autoscroll
font size
0
reset
how to read this tab
guitar tuner
×
Best way to learn
"Eso Es Lo Que Soy"
Autoscroll
slow
fast
+/-
esc
set tempo
stop
ESO ES TODO LO KE SOY  ((EN VIVO))

intro:
|---------------------------------------------|
|---------------------------------------------|
|-------------------------------------5-5-5-5-|(x2)
|----5--3-2------5--3-2------5--3-2---5-5-5-5-|
|5-5---------5-5---------5-5----------3-3-3-3-|
|---------------------------------------------|

verso(mutear):(empieza a tokar donde dice: no me e duchado...)
|-----|
|-----|
|9-11-|
|-----|(x16)
|-----|
|-----|

mi madre dijo...
|----------|
|----------|
|9----7--5-|(x2)
|9----7--5-|
|7----5--3-|
|----------|

...aier hable kon mi padre...
|-----------------------------------------------------------------------------------|
|-----------------------------------------------------------------------------------|
|5-5-5-5--5-5--5-5-5-5--5-5--7-7-7-7--7-7--7-7-7-7--7-7--9-9-9-9--9-9--9-9-9-9--9-9-|(x2)
|5-5-5-5--5-5--5-5-5-5--5-5--7-7-7-7--7-7--7-7-7-7--7-7--9-9-9-9--9-9--9-9-9-9--9-9-|
|3-3-3-3--3-3--3-3-3-3--3-3--5-5-5-5--5-5--5-5-5-5--5-5--7-7-7-7--7-7--7-7-7-7--7-7-|
|-----------------------------------------------------------------------------------|

|-------------------|
|-------------------|
|-5-5-5-7-7-7-9-9-9-|
|-X-X-X-X-X-X-X-X-X-|
|-3-3-3-5-5-5-7-7-7-|
|-------------------|

KORO: Eso es todo lo ke soi...
|----------|
|----------|
|9---7---5-|(X4)
|9---7---5-|
|7---5---3-|
|----------|

verso(mutear):(empieza a tokar donde dice: Siempre le llevo algo para fumar...)
|-----|
|-----|
|9-11-|
|-----|(x16)
|-----|
|-----|

...y se ke tiene una hija komo io ke tiene 16...
|----------|
|----------|
|9----7--5-|(x2)
|9----7--5-|
|7----5--3-|
|----------|

voi a salir a kaminar - voi a buskar alguien en kien konfiar....
|-----------------------------------------------------------------------------------|
|-----------------------------------------------------------------------------------|
|5-5-5-5--5-5--5-5-5-5--5-5--7-7-7-7--7-7--7-7-7-7--7-7--9-9-9-9--9-9--9-9-9-9--9-9-|(x2)
|5-5-5-5--5-5--5-5-5-5--5-5--7-7-7-7--7-7--7-7-7-7--7-7--9-9-9-9--9-9--9-9-9-9--9-9-|
|3-3-3-3--3-3--3-3-3-3--3-3--5-5-5-5--5-5--5-5-5-5--5-5--7-7-7-7--7-7--7-7-7-7--7-7-|
|-----------------------------------------------------------------------------------|

|-------------------|
|-------------------|
|-5-5-5-7-7-7-9-9-9-|
|-X-X-X-X-X-X-X-X-X-|
|-3-3-3-5-5-5-7-7-7-|
|-------------------|

KORO: Eso es todo lo ke soi...
|----------|
|----------|
|9---7---5-|(X4)
|9---7---5-|
|7---5---3-|
|----------|


intermedio:

|             S I N     D I S T O R C I O N                       |
|-----------------------------------------------------------------|
|---------7------------------------------------7------------------|
|----7-------7-------7-------7-----------7--------7------7------7-|
|--7----7---7------7-------7-----------7--------7------7------7---|
|5-------------5-5-----5-5----------5-5------5------5-5----5-5----|
|-----------------------------------------------------------------|


|-----------------------------------------|
|-----------------------------------------|
|5-5--7-7--9-9--7-7----5-5--7-7--9-9--7-7-|
|5-5--7-7--9-9--7-7----5-5--7-7--9-9--7-7-|
|3-3--5-5--7-7--5-5----3-3--5-5--7-7--5-5-|
|-----------------------------------------|

|DISTORCION |
|-----------|
|-----------|
|5~---5-----|
|5~---5-----|
|3~---3-----|
|-----------|

KORO:
|----------|
|----------|
|9---7---5-|(X6)
|9---7---5-|
|7---5---3-|
|----------|


eskuchen bien. esta buena la song!! .. OJO.. ke la version en vivo igual kambia
un poko A LA version original asike 'kuidado'  broders..((en todo kaso esa es la version
ke suena en las radios 'en vivo'))
ia los dejo! bye!!! mi mail      NARROPARK@
Suggest correction
Give kudos to tab author, rate the tab!
1 2 3 4 5
comments
print report bad tab
guest
You may want to rate the tab now too:
select rating
Wanna post a correction for this tab? Suggest correction