Oops, an error
Loading. Please wait.

Mejor Muertos Tab

by Guffi
38 views 1 this week
no commentswrite comment
1 2 3 4 5
3 more votes to show rating
add to favorites
launch autoscroll
font size
0
reset
how to read this tab
guitar tuner
×
Best way to learn
"Mejor Muertos"
Autoscroll
slow
fast
+/-
esc
set tempo
stop
ps io ise mas modificaciones i suena mas komo la original


Intro: DO - SOL - LAm - SOL - FA - SOL - FA - SOL.

e-----------------------------------------------
B-8------8---------8-----8------8-----8------8--
G-----5-----5---5-----5----5--5----5----5--5----

e-----------------
B-----------------
G-5--4--5--7--5---


verso:

e------8--------------8--------9---
B-7----------7----7---------7------ (asi kontinua asta
G---6-----6---------6----6---------   sex pistols)

   DO    SOL         LAm
A) Ella siempre tuvo más
         MIm        FA
   de lo que pudo pedir
          DO            FA
   un carro a temprana edad,
        SOL
   colegio de ricos.

   DO    SOL           LAm
A) Él en cambio era normal,
         MIm          FA
   quizás un poquito punk,
        DO         FA
   escuchaba Papa Roach
         SOL
   y también Sex Pistols.

   LAm              RE
B) Y de nuevo la castigan,
   DO-SOL            DO
   esa gente no es decente dice papá
   SOL-LAm             RE
   y ella piensa que su vida
        SOL
   no tiene sentido

   si no está junto a él.

   DO  SOL LAm MIm  FA
C) Y puede ser un error
   DO          FA     SOL
   puede que caigan muertos los dos,
   DO SOL  LAm
   y vas a caer (y vas a caer)
   MIm    FA
   y va a doler (y va a doler)
              DO             FA
   pero ellos dicen que es mejor
            SOL
   muertos que no juntos.

 DO - SOL - LAm - SOL - FA - SOL - FA - SOL.

e-----------------------------------------------
B-8------8---------8-----8------8-----8------8--
G-----5-----5---5-----5----5--5----5----5--5----

e-----------------
B-----------------
G-5--4--5--7--5---


verso:

e------8--------------8--------9---
B-7----------7----7---------7------ (asi kontinua asta
G---6-----6---------6----6---------  y otra vez sonríe)

A) Y él está parado allí
   esperándola otra vez,
   ella viene un poco mal,
   algo confundida.

A) ¿Cuánto estás dispuesta a dar?
   le pregunta con dolor
   y él la abraza una vez más
   y otra vez sonríe.

B) Y están solos en su casa
   y está todo consumado.
   horas más tarde se encuentran
   los cuerpos tirados
   y aún suena esta canción.

C) Y puede ser un error...

LAm - SOL - RE - DO - SOL - FA - MIm - SOL   x2


C) Y puede ser un error... x2
Suggest correction
Give kudos to tab author, rate the tab!
1 2 3 4 5
comments
print report bad tab
guest
You may want to rate the tab now too:
select rating
Wanna post a correction for this tab? Suggest correction