Oops, an error
Loading. Please wait.

Paul Tab

version 2
version 2

Whole song

by Guffi
131 views 1 this week
no commentswrite comment
1 2 3 4 5
2 more votes to show rating
add to favorites
launch autoscroll
font size
0
reset
how to read this tab
guitar tuner
Autoscroll
slow
fast
+/-
esc
set tempo
stop
Guffi: 'Paul'

Esta es más que nada una 'Electric Version'... ya que la otra versón 
era como más para una guitarra acústica, además que la tabulación 
anterior contenía un par de errores por ahí. En  fín, sin opacar el 
trabajo de los demás he complementado esta tablatura.
Guffi, es una gran banda Chilena, a pesar que (creo) su album aun 
no sale... espero que Chile pueda salvar a esta banda del anonimato 
haci como 'tronic', 'Petinelis' o 'Los Bunkers'... en fín disfruten.

Leyenda:
 ~   Vibrato
 [#] Nota que se deja sonar
 x   Palm Mute o nota muerta
 /   Slide o Arrastre de cuerda
 h   Hammer o martillo

Intro:
E-----x-x--------x-x--------x-x------x---x---x----|
B|----x-x--------x-x--------x-x------x---x---x----|
G|----x-x--------x-x--------x-x------x---x---x----|
D|9-9-x-x-9--7-7-x-x-7--5-5-x-x-5--7-x-7-x-7-x-7--|
A|9-9-x-x-9--7-7-x-x-7--5-5-x-x-5--7-x-7-x-7-x-7--|
E|7-7-x-x-7--5-5-x-x-5--3-3-x-x-3--5-x-5-x-5-x-5--|
     pm........................................

Versos 1:
E|-------x-x---x-x---x-x---x---x---x-----|
B|-------x-x---x-x---x-x---x---x---x-----|
G|7-(7)--x-x---x-x---x-x---x---x---x-----| X2
D|7-(7)--x-x-9-x-x-5-x-x-7-x---x-7-x-7---|
A|5-(5)--x-x-9-x-x-5-x-x-7-x---x-7-x-7---|
E|-------x-x-7-x-x-3-x-x-5-x-5-x-5-x-5---|
        pm............................

Verso 2:
E|-------------------------------------------------x---x---x----|
B|-------------------------------------------------x---x---x----|
G|7-7-7-7-7-7-7-7----------------------------------x---x---x----|
D|7-7-7-7-7-7-7-7-9-9-9-9-9-9-9-5-5-5-5-5-5-5-5--7-x-7-x-7-x-7--|
A|5-5-5-5-5-5-5-5-9-9-9-9-9-9-9-5-5-5-5-5-5-5-5--7-x-7-x-7-x-7--|
E|----------------7-7-7-7-7-7-7-3-3-3-3-3-3-3-3--5-x-5-x-5-x-5--|

Pre Coro
E-----x-x--------x-x--------x-x------x---x---x----|
B|----x-x--------x-x--------x-x------x---x---x----|
G|----x-x--------x-x--------x-x------x---x---x----|
D|9-9-x-x-9--7-7-x-x-7--5-5-x-x-5--7-x-7-x-7-x-7--|
A|9-9-x-x-9--7-7-x-x-7--5-5-x-x-5--7-x-7-x-7-x-7--|
E|7-7-x-x-7--5-5-x-x-5--3-3-x-x-3--5-x-5-x-5-x-5--|


Coro:
E|-----------------------------------------------------------------|
B|-----------------------------------------------------------------|
G|7-7-7-7-7-7-7-7--------------------------------------------------|
D|7-7-7-7-7-7-7-7-9-9-9-9-9-9-9-5-5-5-5-5-5-5-5--7-7-7-7-7-7-7-7-7-|X2
A|5-5-5-5-5-5-5-5-9-9-9-9-9-9-9-5-5-5-5-5-5-5-5--7-7-7-7-7-7-7-7-7-|
E|----------------7-7-7-7-7-7-7-3-3-3-3-3-3-3-3--5-5-5-5-5-5-5-5-5-|

Interlude:
Guitarra base toca intro
E|------------------------------------------------|
B|------------------------------------------------|
G|------7-6--------6-6h7-------7-6---------6-6h7--|
D|-5-4--------5-4---------5-4--------5-4----------|
A|------------------------------------------------|
E|------------------------------------------------|

Verso 1:
Verso 2:
Interulude II:
E|------------------------------------------------|
B|------------------------------------------------|
G|------7-6--------6-6h7-------7-6---------6-6h7--|
D|-5-4--------5-4---------5-4--------5-4----------| X2
A|------------------------------------------------|
E|------------------------------------------------|

Bridge: Guitarra Limpia
E|------------------------------------------------------------------------------------|
B|------------------------------------------------------------------------------------|
G|------------------------------------------------------------------------------------|
D|--7---7---7---7-----7----7-----7----7-----7----7-----7----7----7-----7-----7----7---| X2
A|5---5---5---5-----------------------------------------------------------------------|
E|-----------------7----7----7----7------3----3----3----3-----5----5----5----5--------|
 La primera ves es limpio, y luego es Distorcionado y palm muteado

E|--x---x---x---x--|
B|--x---x---x---x--|
G|7-x---x---x---x--|
D|7-x-9-x-5-x-7-x--|
A|5-x-9-x-5-x-7-x--|
E|--x-7-x-3-x-5-x--|

Estos riff van entre nota y nota, no pude calcular el ritmo y el tiempo, pero es super facil ;)
pero va acorde con el 'Bridge'

'Solo': (Suena un 99% igual a la version original, ya que en el fondo son las mismas notas, pero más graves)

E|------------------------------------------------------------------------------|
B|-5-7-7---5-7--7/10-7---5-7-7---5-7--7/10-7----7-8-8---5-7-8-7----5h7--5-5-----|
G|-7-7-7---7-7-----------7-7-7---7-7-----------------------------7--------------|
D|------------------------------------------------------------------------------|
A|------------------------------------------------------------------------------|
E|------------------------------------------------------------------------------|

E|------------------------------------------------------------------------------|
B|-5-7-7---5-7--7/10-7---5-7-7---5-7--7/10-7----7-8-8---5-7-8-7----5h7--5-5-----|
G|-7-7-7---7-7-----------7-7-7---7-7-----------------------------7--------------|
D|------------------------------------------------------------------------------|
A|------------------------------------------------------------------------------|
E|------------------------------------------------------------------------------|

Coro: X2
Interlude:
Outro:
E|--------------|
B|---5-7-7~~----|
G|---7-7-7~~----|
D|--------------|
A|--------------|
E|--------------|

Aquí les va la letra:

Suena el despertador, en la casa de Paul
Está despierto, está despierto
hace más de media hora
Otra vez se ensució, de nuevo su colchón
Y no lo limpia, y no lo limpia
Porque le gusta la chaqueta.

Todos los días se masturba.

Y pasa horas en la ducha,
Horas en su pieza sin que nadie sepa
Que pasa todas esas horas
Todas esas duchas haciendose la paja.

Como una enfermedad, que desde niño Paul
Desarrollaba en el colegio,
En las clases de geografia.
Sentado en un rincón, al fondo del salon
estaba en eso, estaba en eso
Cuando asustada una alumna grita

'Miren Paul se está Pajeando...'

Y pasa horas en la ducha,
Horas en su pieza sin que nadie sepa
Que pasa todas esas horas
Todas esas duchas haciendose la paja.


Este temita quiero dedicarselo a los cabros del 1°E H.C del 
Salesiano de Valparaíso... que son unos pajeros de mierda.... 
(incluyendome.... :P)...
Cualquier duda, o correción...
MI MSN E E-MAIL
pastor_metal@
Suggest correction
Give kudos to tab author, rate the tab!
1 2 3 4 5
comments
print report bad tab
guest
Wanna post a correction for this tab? Suggest correction