Oops, an error
Loading. Please wait.

Por Ella Bass

version 1
version 1

Whole song

by Guffi
31 views 1 this week
no commentswrite comment
1 2 3 4 5
3 more votes to show rating
add to favorites
×
Save as Personal and add changes to this tab that will be seen only by you. Learn more ›
×
You can save this tab as Personal to edit and correct it or add notes. All changes will be seen only by you. Learn more »
save as personal
new!
launch autoscroll
font size
0
reset
guitar tuner
Autoscroll
slow
fast
+/-
esc
set tempo
stop
Por ella  GUFFI                            *leslie*
                                           jeanpierre mc donald lepardieu
Aquí es en dónde entra el bajo

...Que alguna vez te dije si te matas también lo voy a hacer yo!

|------------------------7-7-7--|
|-------------------------------|
|--9-----7-----5-5-5-5-5--------|
|-------------------------------|

VERSO
Alguna vez oí...
|--------------------------------------------------------------------|
|------------------------5-5-5-5-------------------------------------|
|--5-5-5-5-5-5-5-----------------------------------------------------|
|----------------3-3-3-3---------5-5-5-5-5-5-7-7-7-7-7-7-7-7-7-7-7-7-|

|-----------------------------------------------------------------|
|-----------------------------------------------------------------|
|-7-7-7-7-7-7-7------------------5-5-5-5-5-5-5-5------------------|
|---------------5-5-5-5-5-5-5-5-----------------------------------|

PRECORO:
Siento

|--------------------------------------------------------|
|--------------------------------------------------------|
|------------------------------------------7-7-7-7-7-----|
|-3---3-3-3-3---5---5-5-5-5-5--7---7-7-7-7----------------|

CORO:
Na na,  na na, n ana, POR TI

|--------------------------------------------|
|--------------------------------------------|
|--------------------------------------------|X2
|-3-3-3-3-3-3-3-5-5-5-5-5-5-7-7-7-7-7-7-7----|

|------------------|
|------------------|
|-------------5----|
|-3--3-3-3-3-------|

VERSO
Siempre que tu madre
|--------------------------------------------------------------------|
|--------------------------------------------------------------------|
|--5-5-5-5-5-5-5-----------------------------------------------------|
|----------------3-3-3-3-3-3-3-5-5-5-5-5-5-5-7-7-7-7-7-7-7-7-7-7-7-7-|

|-----------------------------------------------------------------|
|-----------------------------------------------------------------|
|-7-7-7-7-7-7-7------------------5-5-5-5-5-5-5-5------------------|
|---------------5-5-5-5-5-5-5-5-------------------5-5-5-5-5-5-5---|

PRECORO:
Siento

|--------------------------------------------------------|
|--------------------------------------------------------|
|------------------------------------------7-7-7-7-7-----|
|-3---3-3-3-3---5---5-5-5-5-5--7---7-7-7-7----------------|

CORO:
Na na,  na na, n ana, POR TI

|--------------------------------------------|
|--------------------------------------------|
|--------------------------------------------|X2
|-3-3-3-3-3-3-3-5-5-5-5-5-5-7-7-7-7-7-7-7----|

|------------------|
|------------------|
|-------------5----|
|-3--3-3-3-3-------|

       GUITARRA Y BATACA

       Voy a contar hasta 5???..

DE NUEVO AQUIE ENTRAN TODOS

|--------------------------------------------------------|
|--------------------------------------------------------|
|------------------------------------------7-7-7-7-7-----|
|-3---3-3-3-3---5---5-5-5-5-5--7---7-7-7-7----------------|

CORO:
Na na,  na na, n ana, POR TI

|--------------------------------------------|
|--------------------------------------------|
|--------------------------------------------|X4
|-3-3-3-3-3-3-3-5-5-5-5-5-5-7-7-7-7-7-7-7----|

|----------------------|
|----------------------|
|-------------5--5-5-5-|
|-3--3-3-3-3-----------|


Esta canción es dedicada para Leslie (ANTENITA), less.. eres
POCA MADRE?

Espero que les guste cualquier duda mandar un mail:
Suggest correction
Give kudos to tab author, rate the tab!
1 2 3 4 5
comments
print report bad tab
guest
Wanna post a correction for this tab? Suggest correction