Oops, an error
Loading. Please wait.

Por Ella Tab

62 views 1 this week
no commentswrite comment
1 2 3 4 5
3 more votes to show rating
add to favorites
launch autoscroll
font size
0
reset
how to read this tab
guitar tuner
×
Best way to learn
"Por Ella"
Autoscroll
slow
fast
+/-
esc
set tempo
stop
guffi por ella!

;) Y SE LA DEDIKO A TODOS LOS LOKOS KE NO KAXAN NI SE LA PUDIERON SAKAR KON ESAS WEAS DE 'A5 B5 LA DO RE' ;)

ella tenia 20.....
|----------------------------------------------------------------------------------------|
|----------------------------------------------------------------------------------------|
|----------------------------------------------------------------------------------------|
|-7----(x8)---------------------------------------11----------11--------12---------12----|
|-5-5---------7----(x5)--5---(x3)--7----(x8)--9-9--9-9---9-9---9-9--9-9--9-9---9-9--9-9--|
|-------------3-3--------3-3-------5-5--------7-7----7---7-7-----7--7-7----7---7-7----7--|


|----------------------------------------------------------------|
|----------------------------------------------------------------|
|----------------------------------------------------------------|
|-12---12---12---12--------11----11---11-----9----(x8)-----------|
|--9-9--9-9--9-9--9-9--9-9--9-9---9-9--9-9---7-7---------7---7---|
|----7----7----7----7--7-7----7-----7----7---------------5---5---|


alguna vez oí...
|-----------------------------------------------------------------------------------------|
|-----------------------------------------------------------------------------------------|
|-----------------------------------------------------------------------------------------|
|-7(x16)--7---(x8)------------------------------11---------11---------12---------12-------|
|-5-------5-5-------7-(x5)-5------7---(x8)--9-9--9-9---9-9--9-9---9-9--9-9---9-9--9-9-----|
|-------------------3------3(x3)--5-5-------7-7----7---7-7----7---7-7----7---7-7----7-----|

|-------------------------------------------------------------------|
|-------------------------------------------------------------------|
|-------------------------------------------------------------------|
|-12---12---12---12--------11----11---11-----9----(x8)------------7-|
|--9-9--9-9--9-9--9-9--9-9--9-9---9-9--9-9---7-7--------7---(x8)--5-|
|----7----7----7----7--7-7----7-----7----7--------------5-5---------|


siento ke esta vez fui io...
|---------------------------------------------------------------------------------|
|---------------------------------------------------------------------------------|
|---------------------------------------------------------------------------------|
|------------------------------------------------------------------------9-(x16)--|
|-5-5-5--5--5-5-5-5---5-5-7-7-7--7-7--7-7-7---7-7-9-9-9--9-9--9-9-9---9--7--------|
|-3-3-3--3--3-3-3-3---3-3-5-5-5--5-5--5-5-5---5-5-7-7-7--7-7--7-7-7---7-----------|


koro:

|--------------------------------| termina asi:|--------------------------|
|--------------------------------|             |--------------------------|
|--------------------------------|             |--------------------------|
|--------------------------------|             |--------------------------|
|-5-(x8)-7-(x8)-9-(x16)----------|             |-5-5-5-5-5--7-7-7-7--7-7--|
|-3------5------7----------------|             |-3-3-3-3-3--5-5-5-5--5-5--|


supe ke tu madre.....
|-----------------------------------------------------------------------------------------|
|-----------------------------------------------------------------------------------------|
|-----------------------------------------------------------------------------------------|
|-7(x16)--7---(x8)------------------------------11---------11---------12---------12-------|
|-5-------5-5-------7-(x5)-5------7---(x8)--9-9--9-9---9-9--9-9---9-9--9-9---9-9--9-9-----|
|-------------------3------3(x3)--5-5-------7-7----7---7-7----7---7-7----7---7-7----7-----|

|-------------------------------------------------------------------|
|-------------------------------------------------------------------|
|-------------------------------------------------------------------|
|-12---12---12---12--------11----11---11-----9----(x8)------------7-|
|--9-9--9-9--9-9--9-9--9-9--9-9---9-9--9-9---7-7--------7---(x8)--5-|
|----7----7----7----7--7-7----7-----7----7--------------5-5---------|


siento ke esta vez fui io...
|---------------------------------------------------------------------------------|
|---------------------------------------------------------------------------------|
|---------------------------------------------------------------------------------|
|------------------------------------------------------------------------9-(x16)--|
|-5-5-5--5--5-5-5-5---5-5-7-7-7--7-7--7-7-7---7-7-9-9-9--9-9--9-9-9---9--7--------|
|-3-3-3--3--3-3-3-3---3-3-5-5-5--5-5--5-5-5---5-5-7-7-7--7-7--7-7-7---7-----------|

koro:

|--------------------------------| termina asi:|--------------------------|
|--------------------------------|             |--------------------------|
|--------------------------------|             |--------------------------|
|--------------------------------|             |--------------------------|
|-5-(x8)-7-(x8)-9-(x16)----------|             |-5-5-5-5-5--7-7-7-7--7-7--|
|-3------5------7----------------|             |-3-3-3-3-3--5-5-5-5--5-5--|


   |----------------------------------------------------------------------------|
   |-----7---------7---8----7----8------8-9----7-------7---8--------8-9-------7-|
   |---7---7----7----7--------7-------7----------7-------7-------7----------7---|
   |----------------------------------------------------------------------------|
   |-5--------5----------5---------5--------5-------5----------5----------5-----|
   |----------------------------------------------------------------------------|

 voi a kontar hasta 5.....
 voi a kontar hasta 5.... (ahi entra la guitar)
|--------------------------|
|--------------------------|
|--------------------------|
|--------------------------|
|-9~--7~--5~---9~--7~------|
|-7~--5~--3~---7~--5~------|  Kiero ke token la puerta abrir y KE SEAS TU!!!

|---------------------------------------------------------------------------------|
|---------------------------------------------------------------------------------|
|---------------------------------------------------------------------------------|
|------------------------------------------------------------------------9-(x16)--|
|-5-5-5--5--5-5-5-5---5-5-7-7-7--7-7--7-7-7---7-7-9-9-9--9-9--9-9-9---9--7--------|
|-3-3-3--3--3-3-3-3---3-3-5-5-5--5-5--5-5-5---5-5-7-7-7--7-7--7-7-7---7-----------|


koro:

|--------------------------------| termina asi:|-----------------------------------------|
|--------------------------------|             |------------------------------------7~~~-|
|--------------------------------|             |------------------------------------7~~~-|
|-5------7------9----------------|             |-5-5--5--5--5---7--7--7--7---7--7---5~~~-|  FIN!!!!!1
|-5-(x8)-7-(x8)-9-(x16)----------|             |-5-5-5-5-5--7-7-7-7--7-7-----------------|
|-3------5------7----------------|             |-3-3-3-3-3--5-5-5-5--5-5-----------------|


Wena song!! el tab ta bueno!  = konsultas, kejas, puteadas, agradecimientos, felicitaciones, 
etc. jajajaj!!
mi mail:::    NARROPARK@

PD: si alguien tiene algun tab de guffi ke no sea ni 'paul' ni 'por ella' ke me lo mande jeje! 
o ke lo ponga en atame pu! no sean kagones! jejeje ;)
Suggest correction
Give kudos to tab author, rate the tab!
1 2 3 4 5
comments
print report bad tab
guest
You may want to rate the tab now too:
select rating
Wanna post a correction for this tab? Suggest correction