Oops, an error
Loading. Please wait.

Punk Super Star Tab

14 views 1 this week
no commentswrite comment
1 2 3 4 5
2 more votes to show rating
add to favorites
launch autoscroll
font size
0
reset
how to read this tab
guitar tuner
×
Best way to learn
"Punk Super Star"
Autoscroll
slow
fast
+/-
esc
set tempo
stop
guffi  -super star-

/ = SLIDE (ARRASTRE)
X = PALM MUTE

intro:
|-----------------------------------|
|-----------------------------------|
|-------------9----------------9/3--|   DEL 9/3
|-7/9--7/9--7-9----7/9--7/9--7-9/3--|       9/3  SE HACE LENTO!
|-7/9--7/9--7-7----7/9--7/9--7-7/1--|       7/1
|-5/7--5/7--5------5/7--5/7--5------|

verso: vas a kererme...
(PALM MUTE)
|-------------|
|-------------|
|-------------|
|-------7-----| (X2)
|-5--7--5--7--|
|-3--5-----5--|


PRE KORO: Una kancion ke pege bien..
|---------------------|
|---------------------|
|---------------------|
|-------9-------------|
|-7--9--7--9----7--9--|
|-5--7-----7----5--7--|


koro:
|-------------|
|-------------|
|-------9-----| (x2)
|-7--9--9--9--|
|-7--9--7--9--|
|-5--7-----7--|


|---------x-x----x-x-------------------|
|---------x-x----x-x-------------------|
|-9-------x-x----x-x-------------------|  (x2)
|-9(x16)--x-x-7--x-x-7-----------------|
|-7-------7-7-7--7-7-7---------------7-|
|---------5-5-5--5-5-5---9-9--7--9-7---|

verso: estamos hechos para este rol...
(PALM MUTE)
|-------------|
|-------------|
|-------------|
|-------7-----| (X2)
|-5--7--5--7--|
|-3--5-----5--|

pre koro: una kancion ke pege bien...
|---------------------|
|---------------------|
|---------------------|
|-------9-------------|
|-7--9--7--9----7--9--|
|-5--7-----7----5--7--|


koro:
|-------------|
|-------------|
|-------9-----| (x2)
|-7--9--9--9--|
|-7--9--7--9--|
|-5--7-----7--|

interludio:
  (palm mute)
|x---------------------------------------------------------------------------|
|x---------------------------------------------------------------------------|
|x---------------------------------------7-7--7--7-7-7-7---------------------| (x2)
|x-5-5--5--5-5-5-5----7-7--7--7-7-7-7----7-7--7--7-7-7-7----7-7--7--7-7-7-7--|
|x-5-5--5--5-5-5-5----7-7--7--7-7-7-7----5-5--5--5-5-5-5----7-7--7--7-7-7-7--|
|x-3-3--3--3-3-3-3----5-5--5--5-5-5-5-----------------------5-5--5--5-5-5-5--|

|----------------------------------------------------------------------------|
|----------------------------------------------------------------------------|
|----------------------------------------9-9--9--9-9-9-9---------------------| (x2)
|--7-7--7--7-7-7-7----9-9--9--9-9-9-9----9-9--9--9-9-9-9----9-9--9--9-9-9-9--|
|--7-7--7--7-7-7-7----9-9--9--9-9-9-9----7-7--7--7-7-7-7----9-9--9--9-9-9-9--|
|--5-5--5--5-5-5-5----7-7--7--7-7-7-7-----------------------7-7--7--7-7-7-7--|


koro:
|-------------|
|-------------|
|-------9-----| (x4)
|-7--9--9--9--|
|-7--9--7--9--|
|-5--7-----7--|


|---------x-x----x-x----x----------------------------|
|---------x-x----x-x----x----------------------------|
|-9-------x-x----x-x----x------------------------9~--|
|-9(x16)--x-x-7--x-x-7--x-7------7-7--7--7-7-7---9~--|
|-7-------7-7-7--7-7-7--7-7------7-7--7--7-7-7---7~--|
|---------5-5-5--5-5-5--5-5------5-5--5--5-5-5-------|
 fin!!!

wena song! ojala les guste!
mi mail kualkeir kosa   NARROPARK@
Suggest correction
Give kudos to tab author, rate the tab!
1 2 3 4 5
comments
print report bad tab
guest
You may want to rate the tab now too:
select rating
Wanna post a correction for this tab? Suggest correction