Oops, an error
Loading. Please wait.

Apariencia bass

by Gufi
271 views 12 this week
no commentswrite comment
1 2 3 4 5
3 more votes to show rating
add to favorites
×
Save as Personal and add changes to this tab that will be seen only by you. Learn more ›
×
You can save this tab as Personal to edit and correct it or add notes. All changes will be seen only by you. Learn more »
launch autoscroll
font size
0
reset
guitar tuner
edit
Autoscroll
slow
fast
+/-
esc
set tempo
stop
Author
Difficulty
Esta es mi primera tablatura ojalá les sirva y cualquier duda este es mi correo: slayerarcde@gmail.com
DISFRUTEN!!


 Intro:

G|---------------------------------------------------------------------------|
D|---------------------------------------------------------------------------|
A|-5-5-5-5-5-5-5/10--10-10-10-10-10-10-5-----------------5-5-5-4-4-2-2-2-----|
E|---------------------------------------5-5-5-5-5-5-5-5---------------------|

G|---------------------------------------------------------------------------|
D|-7h9-----------------------------------------------------------------------|
A|-----7-7-7-7-7-7-7/12-12-12-10-12-12-12-10-12-12-12-10-12-10---------------|
E|---------------------------------------------------------------------------|

 Verso: X2

G|---------------------------------------------------------------------------|
D|---------------------------------------------------------------------------|
A|-5-5-5-5-5-5-5/10--10-10-10-10-10-10-5------------------5-5-5-4-4-2-2-2----|
E|---------------------------------------5-5-5-5-5-5-5-5---------------------|

G|---------------------------------------------------------------------------|
D|-7h9-----------------------------------------------------------------------|
A|-----7-7-7-7-7-7-7/12-12-12-10-12-12-12-10-12-12-12-10-12-10---------------|
E|---------------------------------------------------------------------------|

 Pre-Coro:

G|-11-11-11-11-11-14-14h16-9------------9-9h11-9-----------------------------|
D|---------------------------11x-11-11---------------------------------------|
A|---------------------------------------------------------------------------|
E|---------------------------------------------------------------------------|

G|-11-11-11-11-11-14-14h16--11-11-11-9-9-9-----------------------------------|
D|-----------------------------------------11-11-11--6-6-6-8-9---------------|
A|---------------------------------------------------------------------------|
E|---------------------------------------------------------------------------|
 
 Coro:

G|---------------------------------------------------------------------------|
D|---------------------------------------------------------------------------|
A|-2-2-2-2-2-2-2-2/10-10-10-10-10-10-10-10/12-12-12-12-12-12-12-12-----------|
E|---------------------------------------------------------------------------|

G|---------------------------------------------------------------------------|
D|---------------------------------------------------------------------------|
A|-9-9-9-9-9-9-9-9--2-2-2-2-2-2-2-2-----------------12-12-12-12-12-12-12-12--|
E|----------------------------------0-0-0-0-0-0-0-0--------------------------|

G|---------------------------------------------------------------------------|
D|---------------------------------------------------------------------------|
A|-16-16-16-16-16-16-14\2-2-2-2-2-2-2-2/10-10-10-10-10-10-10-10-12-12-12-12--|
E|---------------------------------------------------------------------------|

G|---------------------------------------------------------------------------|
D|---------------------------------------------------------------------------|
A|-12-12-12-12-9-9-9-9-9-9-9-9---2-2-2-2-2-2-2-2-----------------------------|
E|-----------------------------------------------0-0-0-0-0-0-0-0-------------|

G|---------------------------------------------------------------------------|
D|-----------------------------------------------------------5-5-5-7-7-7-9-9-|
A|-12-12-12-12-12-12-12-12-14-14-14-14-16-14\2-2-2-4-4-4-5-5-----------------|
E|---------------------------------------------------------------------------|

G|-----------------11-11-11-9-9-9--------------------------------------------|
D|-----------------------------------------------5-5-5-7-7-7-9-9-------------|
A|--------------------------------2-2-2-4-4-4-5-5----------------------------|
E|-5-5-5-7-7-7-9-9-----------------------------------------------------------|

G|---------------------------------------------------------------------------|
D|---------------------------------------------------------------------------|
A|---------------------------------------------------------------------------|
E|-5-5-5-7-7-7-9-9---5-5-5-5-3x----------------------------------------------|

 Break: (2:21)
G|---------------------------------------------------------------------------|
D|---------------------------------------------------------------------------|
A|-5-5-5-5-5-5-5-5/10-10-10-10-10-10-10-10-----------------------------------|
E|----------------------------------------5-5-5-5-5-5-5-5-5-5-5-5-5-5-5-5-5-5|

G|-11-11-11-11-11-14-14h16-9-----9-9h11-9-11-11-11-11-11-14-14h16------------|
D|---------------------------11x---------------------------------------------|
A|---------------------------------------------------------------------------|
E|----------------------------------------------------------------5x---------|

 Coro "2": (2:42)

G|---------------------------------------------------------------------------|
D|---------------------------------------------------------------------------|
A|-2-2-2-2-2-2-2-2/10-10-10-10-10-10-10-10/12-12-12-12-12-12-12-12-----------|
E|---------------------------------------------------------------------------|

G|---------------------------------------------------------------------------|
D|---------------------------------------------------------------------------|
A|-9-9-9-9-9-9-9-9--2-2-2-2-2-2-2-2-----------------12-12-12-12-12-12-12-12--|
E|----------------------------------0-0-0-0-0-0-0-0--------------------------|

G|---------------------------------------------------------------------------|
D|---------------------------------------------------------------------------|
A|-16-16-16-16-16-16-14\2-2-2-2-2-2-2-2/10-10-10-10-10-10-10-10-12-12-12-12--|
E|---------------------------------------------------------------------------|

G|---------------------------------------------------------------------------|
D|---------------------------------------------------------------------------|
A|-12-12-12-12-9-9-9-9-9-9-9-9---2-2-2-2-2-2-2-2-----------------------------|
E|-----------------------------------------------0-0-0-0-0-0-0-0-------------|

G|---------------------------------------------------------------------------|
D|-----------------------------------------------------------5-5-5-7-7-7-9-9-|
A|-12-12-12-12-12-12-12-12-14-14-14-14-16-14\2-2-2-4-4-4-5-5-----------------|
E|---------------------------------------------------------------------------|

G|------------------11-11-11-9-9-9-------------------------------------------|
D|-----------------------------------------------5-5-5-7-7-7-9-9-------------|
A|-------------------------------2-2-2-4-4-4-5-5-----------------------------|
E|-5-5-5-7-7-7-9-9----------------------------------------------2-2-2-2-2-2-2|

G|------------------------------------------------11-11-11-9-9-9-------------|
D|-----------------5-5-5-7-7-7-9-9-------------------------------------------|
A|-2-2-2-4-4-4-5-5-----------------------------------------------------------|
E|---------------------------------5-5-5-7-7-7-9-9---------------------------|

G|---------------------------------------------------------------------------|
D|-----------------5-5-5-7-7-7-9-9-------------------------------------------|
A|-2-2-2-4-4-4-5-5--------------------------------------------------2x-------|
E|---------------------------------5-5-5-7-7-7-9-9---3-3-3-3------2----------|

 Orden:

-Intro
-Verso X2
-Pre-Coro
-Coro
-Verso X2
-Coro
-Break
-Coro "2"


************************************

| x   Dead note
| g   Grace note
| (n) Ghost note
| h   Hammer-on
| p   Pull-off
| r   Release
| >   Accented note
| t   Tapping
| b   Bend
| br  Bend release
| pb  Pre-bend
| pbr Pre-bend release
| /   Slide up
| \   Slide down
| ~   Vibrato
| s   Slap
| P   Pop
| PM  Palm mute
| TR  Trill
| N   Tremolo

************************************

La mujer que a pancho parió 
Y sus padres siempre se esforzaron 
En darle una vida un poquiito mejor 
De la que ambos habian tenido 
El Viejo la chucha se sacó 
Y a pancho lo matricularon 
En un colegio caro donde nunca encajó 
Pancho era anti-estetico 

Como hacerte entender sin que te vaya a ofender 
Que aqui no pertenece gente como usted

Para que te vaya bien en la vida 
Se recomienda estudiar 
En una U particular 
Y ademas de un apellido aleman 
Y una sonrisa artificial 
La apariencia es lo escencial 
Todo va en la estetica 
Lo demas vale mierda 

Un dia viendo el matinal 
Vio un spot que le cambio la vida 
Reemplazo los rasgos que heredo de papa 
Con cheque al nombre del Doctor Vidal 
Algo peculiar sucedio 
Cuando de la clinica regreso 
Llego tan cambiado nadie lo reconocio 
Ni su polola a quien le dijo: 

Como hacerte entender sin que te vaya a ofender 
Que aqui no pertenece gente como usted 

Para que te vaya bien en la vida 
Se recomienda estudiar 
En una U particular 
Y ademas de un apellido aleman 
Y una sonrisa artificial 
La apariencia es lo escencial 
Todo va en la estetica 
Lo demas vale mierda 

Para que te vaya bien en la vida 
Se recomienda estudiar 
En una U particular 
Y ademas de un apellido aleman 
Y una sonrisa artificial 
La apariencia es lo escencial 
Todo va en la estetica 
Lo demas vale mierda 

Todo va en la estetica 
Lo demas vale mierda.

LETRA EXTRAIDA: http://www.musica.com/letras.asp?letra=1416093

Tabulada por: Sebastián Cisterna P. (Yo)

            
            
Suggest correction
Creating personal tab
Creating personal tab
You can edit any tab online and save it as your Personal.

You can edit, replace or remove any tab part or add personal notes – all changes will be seen only by you.

Personal tabs can be accessed anytime from any device, even offline.
Learn more »
Give kudos to tab author, rate the tab!
1 2 3 4 5
comments
print report bad tab
guest
You may want to rate the tab now too:
select rating
Wanna post a correction for this tab? Suggest correction