Oops, an error
Loading. Please wait.

Mejor Muertos Bass Tab

version 1
version 1

Whole song

Interactive

by Gufi
2,278 views 6 this week
no commentswrite comment
1 2 3 4 5
please rate
add to favorites
launch autoscroll
font size
0
reset
guitar tuner
Autoscroll
slow
fast
+/-
esc
set tempo
stop
Help us to improve Ultimate-Guitar.com Take our survey!
×
Author
RaiLeff 12,172
+++++++++++++++++++++++
| Gufi- Mejor Muertos |
+++++++++++++++++++++++


"Ella piensa que su vida no tiene sentido si no está junto a el..."

Tuning: EADG


Intro
1.
G|---------------------------------|
D|---------------------------------|
A|-------------------------3333333-|
E|-5555555-3333333-1111111---------|

2.
G|---------------------------------|
D|---------------------------------|
A|---------------------------------|
E|-5555555-3333333-1111111-3333333-|

Verse
"Ella siempre tuvo mas..."
3.
G|---------------------------------|
D|---------------------------------|
A|-3333333-2222222-0000000---------|
E|-------------------------3333333-|

"Un carro a temprana edad..."
4.
G|---------------------------------|
D|---------------------------------|
A|---------3333333-----------------|
E|-1111111---------1111111-3333333-|

"El en cambio era normal..."
5.
G|---------------------------------|
D|---------------------------------|
A|-3333333-2222222-0000000---------|
E|-------------------------3333333-|

"Escuchaba Papa Roach..."
6.
G|---------------------------------|
D|-3333333---------3333333-5555555-|
A|---------3333333-----------------|
E|---------------------------------|

Pre-Chorus
"Y denuevo la castigan... "
7.
G|---------------------------------------------|
D|----------------------5/7/5555-3333-2222-55--|
A|-------------5-55-5-3------------------------|
E|5-5-555-55-5---------------------------------|

"Dice papa.."
7.
G|---------------------------------------------|
D|------------------------5555-3333-55-7-5-----|
A|-3-2----------5555-3333------------------2-3-|
E|----5555-3333--------------------------------|

Chorus
"Y puede ser un error..."
8.
G|---------------------------------|
D|---------------------------------|
A|-3333333-------------------------|
E|---------3333333-5555555-3333333-|

"Puede que caigan muertos los dos..."
9.
G|---------------------------------|
D|-3333333---------3333333-5555555-|
A|---------3333333-----------------|
E|---------------------------------|

"Y vas a caer..."
10.
G|---------------------------------|
D|---------------------------------|
A|-3333333-------------------------|
E|---------3333333-5555555-3333333-|

"Pero ellos dicen que es mejor muertos que no juntos..."
11.
G|---------------------------------|
D|-3333333---------3333333-5555555-|
A|---------3333333-----------------|
E|---------------------------------|

Outro
12.
G|---------------------------------|
D|---------------------------------|
A|-------------------------3333333-|
E|-5555555-3333333-1111111---------|

13.
G|---------------------------------|
D|---------------------------------|
A|---------------------------------|
E|-5555555-3333333-1111111-3333333-|

Verse
"Y el está parado ahí..."
14.
G|---------------------------------|
D|---------------------------------|
A|-3333333-2222222-0000000---------|
E|-------------------------3333333-|

"Ella viene un poco mal, algo confundida..."
15.
G|---------------------------------|
D|---------------------------------|
A|---------3333333-----------------|
E|-1111111---------1111111-3333333-|

"Cuanto estás dispuesto a dar?..."
16.
G|---------------------------------|
D|---------------------------------|
A|-3333333-2222222-0000000---------|
E|-------------------------3333333-|

"El la abraza una vez mas..."
17.
G|---------------------------------|
D|-3333333---------3333333-5555555-|
A|---------3333333-----------------|
E|---------------------------------|

Pre-Chorus
"Y estan solos en su casa... "
18.
G|---------------------------------------------|
D|----------------------5/7/5555-3333-2222-55--|
A|-------------5-55-5-3------------------------|
E|5-5-555-55-5---------------------------------|

"Horas mas tarde se encuentran.."
19.
G|---------------------------------------------|
D|------------------------5555-3333-55-7-5-----|
A|-3-2----------5555-3333------------------2-3-|
E|----5555-3333--------------------------------|

Chorus
"Y puede ser un error..."
20.
G|---------------------------------|
D|---------------------------------|
A|-3333333-------------------------|
E|---------3333333-5555555-3333333-|

"Puede que caigan muertos los dos..."
21.
G|---------------------------------|
D|-3333333---------3333333-5555555-|
A|---------3333333-----------------|
E|---------------------------------|

"Y vas a caer..."
22.
G|---------------------------------|
D|---------------------------------|
A|-3333333-------------------------|
E|---------3333333-5555555-3333333-|

"Pero ellos dicen que es mejor muertos que no juntos..."
23.
G|---------------------------------|
D|-3333333---------3333333-5555555-|
A|---------3333333-----------------|
E|---------------------------------|

Bridge
24.
G|-----------------------------------------------------------------|
D|-7~--5~----------5~--3~--2~-----------7~--5~----------5555555555-|
A|---------5~--3~------------------333----------5~--3~-------------|
E|-----------------------------3~----------------------------------|

Chorus
"Y puede ser un error..."
25.
G|---------------------------------|
D|---------------------------------|
A|-3333333-------------------------|
E|---------3333333-5555555-3333333-|

"Puede que caigan muertos los dos..."
26.
G|---------------------------------|
D|-3333333---------3333333-5555555-|
A|---------3333333-----------------|
E|---------------------------------|

"Y vas a caer..."
27.
G|---------------------------------|
D|---------------------------------|
A|-3333333-------------------------|
E|---------3333333-5555555-3333333-|

"Pero ellos dicen que es mejor muertos que no juntos..."
28.
G|---------------------------------|
D|-3333333---------3333333-5555555-|
A|---------3333333-----------------|
E|---------------------------------|

"Y puede ser un error..."
29.
G|---------------------------------|
D|---------------------------------|
A|-3333333-------------------------|
E|---------3333333-5555555-3333333-|

"Puede que caigan muertos los dos..."
30.
G|---------------------------------|
D|-3333333---------3333333-5555555-|
A|---------3333333-----------------|
E|---------------------------------|

"Y vas a caer..."
31.
G|---------------------------------|
D|---------------------------------|
A|-3333333-------------------------|
E|---------3333333-5555555-3333333-|

"Pero ellos dicen que es mejor muertos que no juntos..."
32.
G|---------------------------------|
D|-3333333---------3333333-5555555-|
A|---------3333333-----------------|
E|---------------------------------|

Outro
33.
G|---------------------------------|
D|---------------------------------|
A|-3~------------------------------|
E|---------------------------------|


Lyrics:


Ella siempre tuvo mas, de lo que pudo pedir
Un carro a temprana edad, colegio de cuicos
El en cambio era normal, quizas un poquito punk
Escuchaba Papa Roach y tambien Sex Pistols

Y denuevo la castigan
Esa gente no es decente, dice Papa
Y ella piensa que su vida
No tiene sentido, si no está junto a el

Y puede ser un error
Puede que caigan muertos los dos
Y vas a caer, y va a doler
Pero ellos dicen que es mejor muertos que no juntos

Y el está parado ahí, esperándola otra vez
Ella viene un poco mal, algo confundida
¿Cuanto estas dispuesto a dar? Le pregunta con dolor
El la abraza una vez mas, y otra vez sonrie

Y estan solos en su casa
Y esta todo consumado
Horas mas tardes se encuentran
Los cuerpos tirados y aún suena esta canción



+++++++++++++++++++++++++++++++++
| RaiLeff                       |
| Underground__Dora@Hotmail.Com |
+++++++++++++++++++++++++++++++++
Suggest correction
What's this?
You can suggest a correction to this tab. Community and Mods will review your correction and vote to approve or reject it.
comments
We did not receive enough feedback on this tab! Please rate:
print report bad tab
1 2 3 4 5
guest
You may want to rate the tab now too:
select rating
Please do not post tabs as comments. Select "correction" instead!