Oops, an error
Loading. Please wait.

Vixen Eyes intro tab

139 views 9 this week
no commentswrite comment
1 2 3 4 5
3 more votes to show rating
add to favorites
×
Save as Personal and add changes to this tab that will be seen only by you. Learn more ›
×
You can save this tab as Personal to edit and correct it or add notes. All changes will be seen only by you. Learn more »
launch autoscroll
font size
0
reset
how to read this tab
guitar tuner
edit
Autoscroll
slow
fast
+/-
esc
set tempo
stop
Gugun Power Trio - "Vixen Eyes"

Didn't find anything on the internet so I made my own version of the intro and the second riff,
to play along with this awesome piece of music. This is what I came up with.

[Main Riff]
   Bbm7                     Db
e|-6-6-------------------------------------------------------|
B|-6-6----------------------6-6---6-6-6---6-6---6-6----------|
G|-6-6------------8/10-8-6--6-6---6-6-6---6-6---6-6----------|
D|-6-6--------6h8-----------6-6---6-6-6---6-6---6-6----------|
A|-8-8--6-6h8---------------4-4---4-4-4---4-4---4-4----------|
E|-6-6-------------------------------------------------------|

[Main Riff 2]
   Bbm7                     Db
e|-6-6-------------------------------------------------------|
B|-6-6----------------------6-6---------6-6---6-6------------|
G|-6-6------------8/10-8-6--6-6---------6-6---6-6------------|
D|-6-6--------6h8-----------6-6---------6-6---6-6------------|
A|-8-8--6-6h8---------------4-4--6-6h8--4-4---4-4------------|
E|-6-6-------------------------------------------------------|


(( The main riff has a few more variations, just listen to it carefully, it's mostly rhythmic changes. ))

  "The way you move is enchanting..." "And you got me in a trance"
   G#m7              Bbm7                  G#m7
e|--4-----------------6---------------------4-----------------|
B|--4-----------------6---------------------4-----------------|
G|--4-----------------6---------------------4-----------------|
D|--4-----------------6---------------------4-----------------|
A|--6-----------------8---------------------6-----------------|
E|--4-----------------6---------------------4-----------------|

  "With the way you move around"           "And you look so seductive..."

           F#m7                          G#m7            Bbm7
e|----------2---------------------2---2---4---------------6-----|
B|----------2---------------------2---2---4---------------6-----|
G|----------2---------------------2---2---4---------------6-----|
D|----------2---------------------2---2---4---------------6-----|
A|----------4---------------------4---4---6---------------8-----|
E|----------2---------------------2---2---4---------------6-----|

  "Let me take you home with mee..  du du dudududu du du  du"
         G#m7
e|--------4-----------------------------------------------------|
B|--------4-------------------------7--5------------------------|
G|--------4-------------------------------6p4-----6p4-----------|
D|--------4-----------------------------------6p4--------6------|
A|--------6-----------------------------------------------------|
E|--------4-----------------------------------------------------|


************************************

| /  Slide up
| h  Hammer-on
| p  Pull-off

************************************
Suggest correction
Creating personal tab
Creating personal tab
You can edit any tab online and save it as your Personal.

You can edit, replace or remove any tab part or add personal notes – all changes will be seen only by you.

Personal tabs can be accessed anytime from any device, even offline.
Learn more »
Give kudos to tab author, rate the tab!
1 2 3 4 5
comments
print report bad tab
guest
You may want to rate the tab now too:
select rating
Wanna post a correction for this tab? Suggest correction