Oops, an error
Loading. Please wait.

As We Go Up We Go Down Bass Tab

13 views 1 this week
no commentswrite comment
1 2 3 4 5
3 more votes to show rating
add to favorites
launch autoscroll
font size
0
reset
guitar tuner
Autoscroll
slow
fast
+/-
esc
set tempo
stop
Help us to improve Ultimate-Guitar.com Take our survey!
×
Author
Difficulty
novice
[Intro]
G|-----------|------------|-----------|------------|
D|-----------|------------|-----------|------------|
A|------3---3|/7---7-5---5|------3---3|/7---7-5---5|
E|3---3------|------------|3---3------|------------|

[Verse]
G|-----------|------------|-----------|------------| (x2)
D|-----------|------------|-----------|------------|
A|------3---3|/7---7-5---5|------3---3|/7---7-5---5|
E|3---3------|------------|3---3------|------------|

G|-----------|-----------|-----------|-----------|
D|-----------|-----------|-----------|-----------|
A|------3---3|2---2-3---3|------3---3|2---2-3---3|
E|3---3------|-----------|3---3------|-----------|

G|-----------|-----------|-----------|------------|
D|-----------|-----------|-----------|------------|
A|------3---3|2---2-3---3|------3---3|2---2-3--3-0|
E|3---3------|-----------|3---3------|------------|

G|--------------|---------------|
D|--------------|---------------|
A|1--1-1-1-1-1-1|3-3-3-3-3-3-3-3|
E|--------------|---------------|

[Chorus]
G|-----------------------------------|-----------------------------------|
D|/11--11-9-8-9-8-----8--------------|-----11-9-8-9-8-----8----8(~)------|
A|----------------11----11-9-11-9-8--|----------------11----11---------11|
E|----------------------------------9|-----------------------------------|

G|-----------------------------------|---------------------------------|
D|/11--11-9-8-9-8-----8--------------|/11--11-9-8-9-8-----8------------|
A|----------------11----11-9-11-9-8--|----------------11----11-9--9-/--|
E|----------------------------------9|--------------------------------9|

G|11--11-10-8-10-11-13--11--10--11-10--|11--11-10-8----8------------------|
D|-------------------------------------|------------11---11--9--8-----8---|
A|-------------------------------------|---------------------------11---11|
E|------------------------------------9|----------------------------------|
                                    [Outro]                          
G|----------------------------------|----------------------------------| (fade out)
D|/11--11-9-8-9-8-----8-------------|/11--11--8----8-11-----8----8-9-8-|
A|----------------11----11-9-11-9-8-|-----------11-------11---11-------|
E|----------------------------------|----------------------------------|



**************************

| / slide up
| ~ vibrato

**************************
Suggest correction
Give kudos to tab author, rate the tab!
1 2 3 4 5
comments
print report bad tab
guest
You may want to rate the tab now too:
select rating
Wanna post a correction for this tab? Suggest correction