Oops, an error
Loading. Please wait.

Drinkers Peace tab

version 2
version 2

Whole song

928 views 12 this week
no commentswrite comment
1 2 3 4 5
x 5
add to favorites
×
Save as Personal and add changes to this tab that will be seen only by you. Learn more ›
×
You can save this tab as Personal to edit and correct it or add notes. All changes will be seen only by you. Learn more »
launch autoscroll
font size
0
reset
how to read this tab
guitar tuner
edit
Autoscroll
slow
fast
+/-
esc
set tempo
stop
-------------------------------------------------------------------------
                     DRINKER'S PEACE - Guided By Voices
-------------------------------------------------------------------------
Tabbed by: Pat Malavi


Tuning: Standard (album version is slightly detuned)
Capo: 3rd fret


[Verse 1]

    G               D      
e|-----------------------------------|
B|-----------------------------------|
G|------0-------0--------------------|
D|----------------------4-------4----| x6
A|----5---5---5---5---5---5---5---5--|
E|--3-------3-------3-------3--------|

G            D
  At times I wish I were dead
G                     D
  Busy people dancing all over my head
G                   D
  This I value with every move they make
G                        D
  Real bad headache with every step they take


[Chorus 1]

    C               D               G 
e|-------------------------------------------------------------------|
B|-------------------------------------------------------------------|
G|-------------------------------------------------------------------|
D|------0-------0-------0-------0-------0-------0-----4-------4------| x2
A|----5---5---5---5---5---5---5---5---5---5---5---5-----5-------5----|
E|--8-------8-------5-------5-------3-------3-------3-----3-3-----3--|

C         D
  I get a contact buzz
G
  Can't remember what the problem was
C           D
  I find it hard to even care
G 
  Life was too real till you got there


[Verse 2]

    G               D      
e|-----------------------------------|
B|-----------------------------------|
G|------0-------0--------------------|
D|----------------------4-------4----| x6
A|----5---5---5---5---5---5---5---5--|
E|--3-------3-------3-------3--------|

G                         D
  My life is dirt but you seem to make it cleaner
G                D
  Reduce my felony to a misdemeanor
G                            D
  When I feel sick you're an antibiotic
G                            D
  Organize my world that was pointless and chaotic


[Chorus 2]

    C               D               G 
e|-------------------------------------------------------------------|
B|-------------------------------------------------------------------|
G|-------------------------------------------------------------------|
D|------0-------0-------0-------0-------0-------0-----4-------4------| x2
A|----5---5---5---5---5---5---5---5---5---5---5---5-----5-------5----|
E|--8-------8-------5-------5-------3-------3-------3-----3-3-----3--|

C         D
  I get a contact buzz
G
  Can't remember what the problem was
C           D
  I find it hard to even care
G
  Life was too real till you got there


[Outro]
    
e|--------------------------------------------------------------------|
B|--------------------------------------------------------------------|
G|------0-------0-----------------------0-------0---------------------|
D|----------------------4-------4-----------------------4-------4-----|
A|----5---5---5---5---5---5---5---5---5---5---5---5---5---5---5---5---|
E|--3-------3-------3-------3-------3-------3-------3-------3---------|

e|--------------------------------------------------------------------|
B|--------------------------------------------------------------------|
G|------------------------------------------0-------------------------|
D|------0-------0-------0-------0-------0---0-------------------------|
A|----5---5---5---5---5---5---5---5---5---5-5-------------------------|
E|--8-------8-------5-------5-------3-------3-------------------------|

            
            
Suggest correction
Creating personal tab
Creating personal tab
You can edit any tab online and save it as your Personal.

You can edit, replace or remove any tab part or add personal notes – all changes will be seen only by you.

Personal tabs can be accessed anytime from any device, even offline.
Learn more »
comments
print report bad tab
guest
You may want to rate the tab now too:
select rating
Wanna post a correction for this tab? Suggest correction