Oops, an error
Loading. Please wait.

Al Sur Tab

26 views 3 this week
no commentswrite comment
1 2 3 4 5
3 more votes to show rating
add to favorites
×
Save as Personal and add changes to this tab that will be seen only by you. Learn more ›
×
You can save this tab as Personal to edit and correct it or add notes. All changes will be seen only by you. Learn more »
save as personal
new!
launch autoscroll
font size
0
reset
how to read this tab
guitar tuner
Autoscroll
slow
fast
+/-
esc
set tempo
stop
Bueno gente aca les dejo un temon de guillermina que logrué sacar.
Soy nuevo en esto de subir tablaturas asi que si alguien tiene una
critica, duda o cualquier consejo que darme agregenme a
 brunozupel@
Intro:

E----------------------------------------------------------------
B---------------------8------------------------------------------
G---4s7--7-9-4-4s7--7---9-7----------------------------2-0-----0-
D---------------------------9-9-9--7-4-2-4-5-5s9-7-4-2-----2-0---
A----------------------------------------------------------------
E----------------------------------------------------------------

S= slide/arrastrar


(1)
G                  D   G
Los pasos que cargue atrás
G                  D   G         G-F# (notas)
la gente que me hizo brillar
G-F#(notas) Em           A
son esos viajes que mi mente
      C             G
no quiere desterrar
G                  D   G
Un vuelo en trance a la verdad
G                  D   G
vivir el sueño de no pensar
G-F#(notas) Em           A
y escupir a lo amargo de una vida
      C             G
que no llena nada mas.

(2)             C            G
Hice lo que pude y tanto te falle
D                           Em
hice lo que pude y lo que quise lo olvide
     C                     G
y querías que recuerde que íbamos al sur
D                             Em
querías que lo trepe y que bajara nuestra cruz

INTRO
(1)
Las veces que fugue al sol
la cultura que me disfrazo
marcaron en la piel mi historia
para no perderme mas

(2)
Hice lo que pude y tanto te falle
hice lo que pude y lo que quise lo olvide
y querías que recuerde que íbamos al sur
querías que lo trepe y que bajara nuestra cruz.

EN LA PAUSA TOCA G EN LAS TRES ULTIMAS CUERDAS
SOLO:
E----5----------------------------------
B--5---10--8----------------------------
G------------7-7--9-7-------------------
D---------------------9-7---------------
A------------------------10-9-----------
E-----------------------------10-7-5----

G
tanto te falle
D                           Em
hice lo que pude y lo que quise lo olvide
     C                     G
y querías que recuerde que íbamos al sur
D                             Em
querías que lo trepe y que bajara nuestra cruz

CUANDO CANTA UUOU UUOU Y EL FINAL : LO HACES CON LAS BASES DE (2)
Suggest correction
Give kudos to tab author, rate the tab!
1 2 3 4 5
comments
print report bad tab
guest
Wanna post a correction for this tab? Suggest correction