Oops, an error
Loading. Please wait.

Bestiario Chords

13 views 3 this week
no commentswrite comment
1 2 3 4 5
3 more votes to show rating
add to favorites
launch autoscroll
font size
0
reset
transpose
0
reset
simplify chords
display chords
guitar tuner
×
Best way to learn
"Bestiario"
Autoscroll
slow
fast
+/-
esc
set tempo
stop
Bestiario II
INTRO
E-----6--8------6---8----6------------------------------
A--------------------------------6----8-----6---8-----6-
D-------------------------------------------------------
G-------------------------------------------------------
B-------------------------------------------------------
E-------------------------------------------------------
Repite 8 veces
En la ultima vuelta hace
E---6----8------6-----8------6------------------8-----6-------
A------------------------------------8------6-----------------
D-------------------------------------------------------------
G-------------------------------------------------------------
B-------------------------------------------------------------
E-------------------------------------------------------------

E---8---8------8----8--------------6--
A-----------6-------------8----6-------
D----------------------------------------
G----------------------------------------
B----------------------------------------
E----------------------------------------


Es tiempo de pararnos ya y cosernos las venas.
La ira vertiente, reprimida en años, es capaz de llegar
a la locura, y no imaginás hasta donde ella puede llegar...
no te das idea hasta dónde puede llegar.
La paz supuesta, existente de hoy, se carga como un trueno;
vive por alguien, vive por ella y no duermas ahora que...
la vertiente va a llegar y que todos tengamos a quién cuidar,
inocentes quedan entre fuego cruzado y a la deriva.     B5b

E5b            B5b              C5
¡Hey! como un juego librado al azar,

B5b                        E5b
cuánto tiempo comiéndome a mí,
B5b                  C5                B5b
lastimado por no reaccionar (un sereno normal).
¡Hey! Sólo esto libera a la bestia, la bestia me deja llorar,
la bestia me deja en paz (cuando lo hace y se va).
Suggest correction
Give kudos to tab author, rate the tab!
1 2 3 4 5
comments
print report bad tab
guest
You may want to rate the tab now too:
select rating
Wanna post a correction for this tab? Suggest correction