Oops, an error
Loading. Please wait.

Cafe Latinoamericano Chords

18 views 1 this week
no commentswrite comment
1 2 3 4 5
3 more votes to show rating
add to favorites
launch autoscroll
font size
0
reset
transpose
0
reset
simplify chords
display chords
guitar tuner
Autoscroll
slow
fast
+/-
esc
set tempo
stop
Help us to improve Ultimate-Guitar.com Take our survey!
×
e----------------------------------------------- ||
B----------------6----------------5/3-1/3/1----- ||
G-----2-2----0-4------(2-5)--2-5-2-----------2-- ||Riff 1
D----2---2-------------------------------------- ||
A----------------------------------------------- ||
E----------------------------------------------- ||

Este sueño que aún sigue lastimando
es la sangre de los que ayer murieron
y hoy callan, los mandan a dormir.

e----------------------------------------------- ||
B-------4-0-7----------------------------------- ||
G---2------------(2-5)-------------------------- ||Riff 2
D----2------------------------------------------ ||
A----------------------------------------------- ||
E----------------------------------------------- ||

Es la ilusión moderna que empalaga
manteniendo a la sangre nueva desorientada
no tengo a donde ir.


C5                  G5
Lobotomía del confort
                       A5
que neutraliza a mi raza
C5                         G5
siento la ira y la vergüenza
                        A5
del que mira y solo calla


Esta historia que sigue anestesiada     ||
es la historia del rey que te divirtió  ||Riff 1
y hoy te cansa, te cansa hasta dormir   ||

Quién hubiera podido imaginarse         ||
que un estado y un gobierno             ||Riff 2
podrían torturarte y mandarte a morir   ||

C5                  G5
Lobotomía del confort
                       A5
que neutraliza a mi raza
C5                         G5
siento la ira y la vergüenza
                        A5
del que mira y solo calla


F5                  C5            D5
Cambio de fichas en Latinoamérica
                                      A5
pusieron fichas verdes para el control
F5                    C5
y cuando no quedo a nadie por limpiar
D5             Eb
 llego la hora de votar

e----------------3------------------------------ ||
B----5-1-3---5-1-------------------------------- ||
G--2-------2------------------------------------ ||Riff 3
D----------------------------------------------- ||
A----------------------------------------------- ||
E----------------------------------------------- ||


C5                  G5
Lobotomía del confort
                       A5
que neutraliza a mi raza
C5                         G5
siento la ira y la vergüenza
                        A5
del que mira y solo calla

C5                     G5
Y no te vayas a dormir
                         A5
que este sueño te amenaza
C5                        G5
y no te creas que esto esta bajo control
              A5
por que esto mata.


  Fragmento del ultimo        ||
  discurso de                 || Riff 3
  Salvador Allende            ||


Bueno.. espero qe haya salidos Masomenos..
por lo menos para acercarse a la version original ésta..
ahora falta qe corrijan uno qe otro error

Cualkier cosa si tienen algo mejor no duden en agregarme
toallim@

saludos


Eb    666666
      ''''''
      88''''
      ''''''
Suggest correction
Give kudos to tab author, rate the tab!
1 2 3 4 5
comments
print report bad tab
guest
You may want to rate the tab now too:
select rating
Wanna post a correction for this tab? Suggest correction