Oops, an error
Loading. Please wait.

Dime Tab

26 views 1 this week
no commentswrite comment
1 2 3 4 5
3 more votes to show rating
add to favorites
×
Save as Personal and add changes to this tab that will be seen only by you. Learn more ›
×
You can save this tab as Personal to edit and correct it or add notes. All changes will be seen only by you. Learn more »
save as personal
new!
launch autoscroll
font size
0
reset
how to read this tab
guitar tuner
Autoscroll
slow
fast
+/-
esc
set tempo
stop
Bueno, esta canción es más bien simple, pero como
siempre lo mejor es tenerla escuchada muchas veces.


Intro (y Pre-Estribillo)

e|---------------------------------
B|---------------------------------
G|---------------------------------
D|--5-5---3-5-5---5-5--5-5---------
A|--5-5---3-5-5---5-5--5-5---------
E|--3-3---1-3-3---3-3--3-3---------

Versos

e|---------------------------------------
B|---------------------------------------
G|----------5p7----------------5p7-------
D|--5-5---------5-5------5-5---------5-5-
A|---------------------------------------
E|---------------------------------------


Estribillo

e|-----------------------------------------
B|-----------------------------------------
G|-----------------------------------------
D|--5-5-5-5---5-5-5-5---8-8-8-8---3-3-3-3--
A|--5-5-3-5---5-5-5-5---8-8-8-8---3-3-3-3--
E|--3-3-3-3---3-3-3-3---6-6-6-6---1-1-1-1--


Puente

e|-------------------------
B|-------------------------
G|-------------------------  Repetir como
D|-------------------------  sea necesario.
A|------------------1p0----
E|-3-3-3--1-3-3-1-3-----1--

e|----------------------------------
B|----------------------------------
G|----------------------------3--5--
D|----------------------------3--5--
A|-------------------1p0------1--3--
E|--3-3-3--1-3-3-1-3-----1----------


Y después Estribillo.

Yatá, creo que no hay nada más y creo que está bien.
Suggest correction
Give kudos to tab author, rate the tab!
1 2 3 4 5
comments
print report bad tab
guest
Wanna post a correction for this tab? Suggest correction