Oops, an error
Loading. Please wait.

El Impulso Humano Tab

14 views 1 this week
no commentswrite comment
1 2 3 4 5
3 more votes to show rating
add to favorites
launch autoscroll
font size
0
reset
how to read this tab
guitar tuner
×
Best way to learn
"El Impulso Humano"
Autoscroll
slow
fast
+/-
esc
set tempo
stop
Un temazo del disco nuevo de la guille! Creo que está bastante bien!

Em       C   G          D
si no podés,   o no querés,
         Em         C
ver la llama consumiendose
G          D        Em
  solo seguís quemandola

INTERMEDIO:

(Em-C-G-D) x2

RIFF:
e |--------------------------------------------------
B |-8-7-5~--3h5-5-5-5-3-3~~---8-7-5~--3---------2~~--
G |--------------------4-------------4-4~-2-4-2------
D |--------------------------------------------------
A |--------------------------------------------------
E |--------------------------------------------------

Em         C   G          D
fuimos la hiel,  somos el mal
       Em         C
que desata la desolación
G          D
pero al final,

       Em      C          G
solo quiero tenerte a mi lado
      D          Em
sin miedo y sin temor
       C   G            D
y aceptar,   lo que vendra

         C           G
cuando llegue las sombras
    D        Em
sabrás que hacer
      C        G
y a oscuras a casa
    D    Em
sabrás volver

      C       G
el impulso humano
     D    Em
que nos quedo
    C
al fin,
      G              D       Em
nos muestre cuanto vale vivir

INTERMEDIO:
(Em-C-G-D) x2 + RIFF

Em       C   G         D
y no querer,  nunca parar,
      Em         C
la codicia le quitó el lugar
G          D
 a la humildad

       Em           C          G
y los sordos, los ciegos, los necios
     D          Em
que van a explicar
         C  G          D
con que ley,  nos salvaran

         C           G
cuando llegue las sombras
    D        Em
sabrás que hacer
      C        G
y a oscuras a casa
    D    Em
sabrás volver

      C       G
el impulso humano
     D    Em
que nos quedo
    C
al fin,
      G              D       Em
nos muestre cuanto vale vivir

SOLO DE GUITARRA:
(C-G-D-Em) x4

e |--------------------------------------------------
B |---------------8-7----------8--5----3-------------
G |----7-9~~-9-7~----7-7-9~-------------0------------
D |-7h9---------------------7h9--9---6---4~-4-2-4-5~-
A |--------------------------------------------------
E |--------------------------------------------------

e |-7777797------10-8-7------------------------------
B |-88888888~----------8~---------------7b8r7--5~~~~-
G |-99999997~-7~----------7-9~----7-9-7~-------------
D |----------------------------7h9-------------------
A |--------------------------------------------------
E |--------------------------------------------------


Em       C   G          D
o no queres,   o no podes,
          Em        C
ver la llama consumiendose
G            D
prueba otra vez

         C           G
cuando llegue las sombras
    D        Em
sabrás que hacer
      C        G
y a oscuras a casa
    D    Em
sabrás volver

      C       G
el impulso humano
     D    Em
que nos quedo
    C
al fin,
      G              D
nos muestre cuanto vale

F#m  D     A            E
ohhhhh, quién podrá elevarse al dolor?
F#m  D   A          E        F#m
ohhhhh, voy a intentarlo por vos,

F#m  D     A            E
ohhhhh, quién podrá elevarse al dolor?
F#m  D   A          E        F#m
ohhhhh, voy a intentarlo por vos,

Aguante la guille!
Suggest correction
Give kudos to tab author, rate the tab!
1 2 3 4 5
comments
print report bad tab
guest
You may want to rate the tab now too:
select rating
Wanna post a correction for this tab? Suggest correction