Oops, an error
Loading. Please wait.

Escapar Chords

4 views 1 this week
no commentswrite comment
1 2 3 4 5
3 more votes to show rating
add to favorites
launch autoscroll
font size
0
reset
transpose
0
reset
simplify chords
display chords
guitar tuner
Autoscroll
slow
fast
+/-
esc
set tempo
stop
Help us to improve Ultimate-Guitar.com Take our survey!
×
Escapar
INTRO:  E5     E5 - D5 - B5 - G5
E-------------------------------------------------------------------------
A-----7----------------------------------------------------------------7--
D----------6----7-----9-----------------9-----7-----6----7----6-----------
G----------------------------9-----7--------------------------------------
B-------------------------------------------------------------------------
E-------------------------------------------------------------------------

E-------------------------------------------------------------------------
A-----7-------------------------------------------------------------------
D----------6----7-----9-----------------9---------------------------------
G----------------------------9-----7-----------7-----------7-------9------
B----------------------------------------------------7--------------------
E-------------------------------------------------------------------------

E5                                 D5
Están cazando a los cobardes en mi sueño.
E5                                       D5
Y a los cobardes se les está acabando el tiempo.
E5                D5     E5                    D5
Están buscándome a mí, al cobarde que hay en mí.

Repite INTRO

Debo saber lo que no estoy haciendo,
me están llamando desde adentro para hacerlo.
Me estoy cansando de escapar. Un crucigrama que cruzar.


A5                                      E5           F#5 - E5 - F#5 - E5
Oh, Dios mío qué me queda, ya no quiero escapar.
Soy el llanto, soy la risa hundida en este mar.
Me juraste que estarías a tiempo, y adónde estás? ¿adónde estás?
Oh, Dios mío ¿qué me queda? (escapar).

Debo saber lo que no estoy haciendo,
me están llamando desde adentro para hacerlo.
Están buscándome a mí, al cobarde que hay en mi.

Oh, Dios mío qué me queda, ya no quiero escapar.
Me juraste que estarías, te busco y ¿adónde estás?
Soy el llanto, soy la risa hundida en este mar.
Oh, Dios mío ¿qué me queda? (escapar...)


E5=   0-2-2-x-x-x
D5=   x-5-7-7-x-x
B5=   x-2-4-4-x-x
A5=   x-0-2-2-x-x
F#5=  2-4-4-x-x-x
Suggest correction
Give kudos to tab author, rate the tab!
1 2 3 4 5
comments
print report bad tab
guest
You may want to rate the tab now too:
select rating
Wanna post a correction for this tab? Suggest correction