Oops, an error
Loading. Please wait.

Genes Bass Tab

7 views 1 this week
no commentswrite comment
1 2 3 4 5
3 more votes to show rating
add to favorites
launch autoscroll
font size
0
reset
guitar tuner
Autoscroll
slow
fast
+/-
esc
set tempo
stop
Help us to improve Ultimate-Guitar.com Take our survey!
×
GENES!!!


 (1)
G|---------------------------|
D|---------------------------|
A|-------0-2-----------------|
E|-2-2-2---------------------|


(2)
G|---------------------4------|
D|---------------55-77---7--------|
A|-55555-3h5-3h5-------------------|
E|--------------------------0h2-0h2-0h2-0h2-(x2)-|


(3)
G|---------------------4-----------------------|
D|---------------55-77---7-------77-9-7--------|
A|-55555-3h5-3h5-----------66666--------777-888|
E|---------------------------------------------|

(4)
G|-----------|---------------------|
D|-----------|---------------------|
A|-------0-2-|-----22----------22--|
E|-2-2-2-----|--55----00-2--55----2|

(5)
G|------------|---------------|
D|------------|-----------2-4-|
A|-------0-2--|-----2-3-5-----|
E|-2-2-2------|-2-5-----------|


(1)
Transmitiendo el ruido de la señal..
alentando a que se tiren de una vez...
confundiendo por la idea principal...
estamos en el hombre, caída abajo.

(1)
Escuchando el ruido de la señal..
alentándome a tirarme de una vez..
confundido por la razón principal.
estoy cayéndome.


Sálvame, salva al hombre que hay aquí (2)
cúbreme que hoy no puedo estar de pie(3)
estoy rompiendo el ancla,
dame el tiempo para creer en mi.


Controlamos los genes de la monarca  (4)
persuadimos las ideas del poder
creo que puedo limpiar mi alma, despertándome!

Sálvame, salva al hombre que hay aquí (2)
solo hoy me dan valor las luces que encuentro en vos (2)
cúbreme que hoy no puedo estar de pie (3)
estoy rompiendo el ancla,
dame el tiempo para creer en mi.


despues sigue con la base de estrofa
hasta la subida durante el solo q hace la base (5)
y termina con bases (2) (3) (1)


eso es todo cualkier cosa l_casla73@hot...


y aguante la guille!!!


Lukas!
Suggest correction
Give kudos to tab author, rate the tab!
1 2 3 4 5
comments
print report bad tab
guest
You may want to rate the tab now too:
select rating
Wanna post a correction for this tab? Suggest correction