Oops, an error
Loading. Please wait.

Jardines Del Rey Bass Tab

11 views 1 this week
no commentswrite comment
1 2 3 4 5
3 more votes to show rating
add to favorites
launch autoscroll
font size
0
reset
guitar tuner
Autoscroll
slow
fast
+/-
esc
set tempo
stop
Help us to improve Ultimate-Guitar.com Take our survey!
×
BUENO ACA LES DEJO LA TRANSCRIPCION DE JARDINES DEL REY DE GUILLERMINA


Repite esta base hasta el estribillo.....
en la ultima nota antes del estribo mete un slide


G|----------------------------------------|
D|----------------------------------------|
A|----------------------------------------|
E|-5-5-7-5---5-5-7-5---5-5-7-5---5-5-7-5--|


G|----------------------------------------|
D|----------------------------------------|
A|----------------------------------------|
E|-0-0-2-0---0-0-2-0---0-0-2-0---0-0-2-0--|


Si esto tiene que acabar
la culpa no vayas a buscar
ya estaba así, estaba mal
el mundo que te han dado

Y no tienes nada más
que tu cuerpo acorralado
y solo por no gritar
tenes aire de vez en cuando

No te sientas solo que al final
en este mundo somos tantos
esperando el fruto de lo que sería
algún día nuestro árbol

No te sientas muerto,
aunque lo estés y arrodillado
escupe con la sangre que té queda
la vieja raíz del pasado


Estribillo:


Jardines, el árbol de tus sueños
todavía aquí dentro
esperando al maldito rey
ese hijo de la reina, ordeñando
que vive de tu vida

G|------------------------------|
D|------------------------------|
A|-------------7-77--7-77---7---|
E|-5-55--5-55-------------------|

Repite esto hasta la parte que dice....


El árbol de tus sueños
se secó hasta la fruta
no fue suficiente esperanza
a tu árbol y a tu fruta


G|--------5h7-5h3----------------------------------|
D------5h7-------7h5-------------------------------|
A|--5h7-------------7h5----7--77---7-77----7-------|2 veces
E|-5-----------------------------------------------|


Si esto tiene que acabar
la culpa no vayas a buscar
ya estaba así, estaba mal
el mundo que m han dado


No me siento solo porque se
que en este mundo somos tantos
y escupo con la sangre que me queda
la vieja raíz del pasado


G|----------------------------------------|
D|----------------------------------------|
A|----------------------------------------|
E|-5-5-7-5---5-5-7-5---5-5-7-5---5-5-7-5--|


G|----------------------------------------|
D|----------------------------------------|
A|----------------------------------------|
E|-0-0-2-0---0-0-2-0---0-0-2-0---0-0-2-0--|


Jardines, el árbol de tus sueños
todavía aquí dentro
esperando al maldito rey
ese hijo de la reina, ordeñando
que vive de tu vida

G|------------------------------|
D|------------------------------|
A|-------------7-77--7-77----7--|
E|-5-55--5-55-------------------|

Repite esto hasta la parte que dice....


El árbol de tus sueños
se secó hasta la fruta
no fue suficiente esperanza
a tu árbol y a tu fruta


G|--------5h7-5h3----------------------------------|
D------5h7-------7h5-------------------------------|
A|--5h7-------------7h5----7--77---7-77----7-------|2 veces
E|-5-----------------------------------------------|


Despues termina con la base de la estrofa
en el solo de guitarra hasta el final.


Bueno gente eso es toda la tablatura
para bajo de Jardines del Rey

cualquier duda,consultas o puteadas me escriben.


Aguante guillermina y MONO ROCK


[ESCUCHA MONO ROCK]

------------------------


[ESCUCHA MONO ROCK]

--------------------------------------


Suggest correction
Give kudos to tab author, rate the tab!
1 2 3 4 5
comments
print report bad tab
guest
You may want to rate the tab now too:
select rating
Wanna post a correction for this tab? Suggest correction