Oops, an error
Loading. Please wait.

Kali Yuga Tab

22 views 1 this week
no commentswrite comment
1 2 3 4 5
3 more votes to show rating
add to favorites
launch autoscroll
font size
0
reset
how to read this tab
guitar tuner
Autoscroll
slow
fast
+/-
esc
set tempo
stop
·Intro:

Riff 1:
E|-------------------------------
b|-------------------------------
g|-------------------------------
d|-2------------2----------------  (x4)
a|-0--0-3^0-2^0-0----------------
e|-----------------1-3^1-3-------


·Estrofas:

Riff 2:
E|-------------------------------
b|-------------------------------
g|-------------------------------
d|-2-x-2-------2-x-2-------------  (x4)
a|-0-x-0-5-x-5-0-x-0-------------
e|-------3-x-3-------3-1-3-1-3---


·Estribillo:

Riff 1 (x4)


[·Esttrofas y ·Estribillo una vez más]


·Puente:

Riff 3:
   A5           G#5          G5
E|----------------------------------------
b|----------------------------------------
g|----------------------------------------
d|-7-7-7-7-7-7--6-6-6-6-6-6--5-5-5-5-5-5--
a|-7-7-7-7-7-7--6-6-6-6-6-6--5-5-5-5-5-5--
e|-5-5-5-5-5-5--4-4-4-4-4-4--3-3-3-3-3-3--
   F#5          F5                            (x2)
E|----------------------------------------
b|----------------------------------------
g|----------------------------------------
d|-4-4-4-4-4-4--3-3-3-3-3-3--3-3-3-3-3-3--
a|-4-4-4-4-4-4--3-3-3-3-3-3--3-3-3-3-3-3--
e|-2-2-2-2-2-2--1-1-1-1-1-1--1-1-1-1-1-1--


·Solo:

Riff 1 [x8] o [x10] y  Riff 3 [x2]

·Estribillo hasta el final

*Termina en A5


----------------------------------------------------------

Letra:

"Kali Yuga"

(·Estrofas)
Aman odiar, odian amar
y los opuestos no duermen en paz
Y los que si, y los que no
todos juntos mezclados acá
Cuesta tanto poder aprender
Cuesta tanto poder entender
Tantos velos para destapar
en la era del Kali Yuga

(·Estribillo)
Era del Kali Yuga?. Yuga Kali Yuga
Elije hacer o romper, destinatiandote

(·Estrofas)
Aman amar, odian odiar
Y los opuestos se dejan en paz
Y los quizás, los puede ser
poder tener una oportunidad
Cuesta tanto poder aprender
Cuesta tanto poder entender
Tantos velos para destapar
en la era del Kali Yuga

(·Estribillo)
Era del Kali Yuga?. Yuga Kali Yuga
Elije hacer o romper, destinatiandote

(·Puente)
Por los poros de tu piel, por el aire que respiras
te llenas de la misma inmensidad
y es somos tan libres que
como artesanos construimos una cueva
para nuestra libertad

[·Solo]

(·Estribillo)
Era del Kali Yuga?. Yuga Kali Yuga
Elije hacer o romper, destinatiandote

----------------------------------------------------------

Locos!! espero que les sirva!!
Aguante GUILLERMINA!!!!!!!!!!!


Mr. Manuela

Dudas y todo eso: lucasm-77@
Suggest correction
Give kudos to tab author, rate the tab!
1 2 3 4 5
comments
print report bad tab
guest
You may want to rate the tab now too:
select rating
Wanna post a correction for this tab? Suggest correction