Oops, an error
Loading. Please wait.

Por Dentro (Alma) Tab

5 views 1 this week
no commentswrite comment
1 2 3 4 5
3 more votes to show rating
add to favorites
launch autoscroll
font size
0
reset
how to read this tab
guitar tuner
Autoscroll
slow
fast
+/-
esc
set tempo
stop
Help us to improve Ultimate-Guitar.com Take our survey!
×
Aca les dejo un temón de la Guille!

h=hammer
b=bending
p=pull off

Intro: Am - F - C - G


Am         F  C         G
  Somos igual, somos por dentro,
Am            F          C               G
  un gran galpón guardando lo que estás perdiendo
Am            F   C       G
  Cuando despierte y alfin te encuentre
Am         F        C            G
  yo te daría libertad hasta la muerte

Am    F       C    G
e|-------------------------------|
B|-------------------------------|
G|-5-----------5-----------------|
D|---7---5-7-----7---5-7---------|
A|-----7-----------7-------------|
E|-------------------------------|

    Am     F     C       G
e|-------------------------------|
B|-------------------------------|
G|-7-5---------------------------|
D|-----7---5-7--5-5h7p5----------|
A|-------7--------------7-5-5h7--|
E|------------------------------8|


Somos igual, somos por dentro,
un libro abierto con las partes de este cuento
SI fuera SOL, SI fuera viento,
levantaría las banderas de tu cuerpo

Estribillo
C  G    F             G           C  G
Alma, no viste que hay mucho para mí
   F          G              Am
no tiene más sentido aquí dormir
  G            F             C
Así no creo que va, como el triste
       G              Am
día aquel, que te perdí

   Am    F       C    G
e|-------------------------------|
B|-------------------------------|
G|-5-----------5-----------------|
D|---7---5-7-----7---5-7---------|
A|-----7-----------7-------------|
E|-------------------------------|

    Am     F     C       G
e|-------------------------------|
B|-------------------------------|
G|-7-5---------------------------|
D|-----7---5-7--5-5h7p5----------|
A|-------7--------------7-5-5h7--|
E|------------------------------8|


Somos igual, somos por dentro, un magma
en un volcán, que ya se está rompiendo
cuando despiertes y al fin me encuentres
vos me darías libertad hasta la muerte

Alma, no viste que hay mucho para mí
no tiene más sentido aquí dormir
Así no creo que va, como el triste
día aquel, que te perdí

Solo:

       F               C       G
e|-8p7-8---8p7-8----------------------------------------|
B|-------8-------8h10--9--------------------------------|
G|-----------------------12-10-9------------------------|
D|------------------------------------------------------|
A|------------------------------------------------------|
E|------------------------------------------------------|

       F               G
e|-------------------------------15-----15-----15-------|
B|-12-12----12-12-13-13h15-15h17----17b----17b----15p13-|
G|-------14---------------------------------------------|
D|------------------------------------------------------|
A|------------------------------------------------------|
E|------------------------------------------------------|

Alma, no viste que hay mucho para mí
no tiene más sentido aquí dormir
Así no creo que va, como el triste
día aquel, que te perdí X2


Desde Bragado, para todoss los fanáticos de la guille
AGUANTE GUILLERMINA!!!
Suggest correction
Give kudos to tab author, rate the tab!
1 2 3 4 5
comments
print report bad tab
guest
You may want to rate the tab now too:
select rating
Wanna post a correction for this tab? Suggest correction