Oops, an error
Loading. Please wait.

Puerto Locura Tab

version 1
version 1

Whole song

13 views 1 this week
no commentswrite comment
1 2 3 4 5
3 more votes to show rating
add to favorites
×
Save as Personal and add changes to this tab that will be seen only by you. Learn more ›
×
You can save this tab as Personal to edit and correct it or add notes. All changes will be seen only by you. Learn more »
save as personal
new!
launch autoscroll
font size
0
reset
how to read this tab
guitar tuner
Autoscroll
slow
fast
+/-
esc
set tempo
stop
Hola gente soy masi y aca les dejo una de las mejores
canciones de la guille
------------------------------------------------------------------------
Como en la primera parte lo toca con el teclado pueden hacer
estos arpegios...

[Arpegio 1]

        Dm          C           A#          F       A# F
e|------5-----------3-----------1----------1--------1--1-1------|
B|--------6-----------5-----------3----------1------3--1---1----|
G|----------7-----------5-----------3----------2----3--2-----3--|
D|-7----------7-7-5-------5-5-3-------3-3--------3--3--3--------|
A|-5------------5-3---------3-1---------3-----------------------|
E|--------------------------------------1-----------------------|

[arpegio 2]

     Dm          A#       F         C
e|---5-----------6--------8----------8--------------------------|
B|-----6-----------6--------10---------8------------------------|
G|-------7-----------7-10------10--------9----------------------|
D|-7-------7-7-8-------10---------10----------------------------|
A|-5---------5-8--------8---------10----------------------------|
E|-------------6-------------------8----------------------------|


Dm             C
Aguas que van, vientos que no
A#      F       A#-F
nadie agarro el timon.                     [arpegio 1]
Dm              C
El norte se fue,amor y al sur
A#            F     A#-F
sin rumbo quedastes aqui.

Dm              A#
Lejos de estar tranquila                   [arpegio 2]
F             C
cerca de la locura.

Dm                    C
Donde tus barcos hoy duermen
A#         F          A#-F
solita llegaste hasta aca.
Dm                       C                 [arpegio 1]
Un puerto que avisa en silencio
A#               F        A#-F
la tormenta que nacio en tu mar.

riff  D5                          A#5                    F5   E5
      Lejos de estar de estar tranquila              e|-----------|
      F5             C5                              B|-----------|
      lejos de la inocencia                          G|-----------|
riff  D5            A#5                              D|-10-10--9--| riff
      lejos D LA paciencia                           A|--8--8--7--|
      F5           C5                                E|-----------|
      cerca dela locura

A#5      A5         F5
como llegaste hasta aca
A#5      A5         F5
solita puedes regresar
C5                 A#5
no quiero verte en el fondo del mar
     F5                C5
hoy solo yo te quiero volver a ver
A#5       A5         F5
por tu camino el que vas
A#5   A5             F5
tu camino es el que vas


[solo de saxo]


riff  D5                          A#5
      lejos de estar de estar tranquila
      F5             C5
      lejos de la inocencia
riff  D5            A#5
      lejos d la paciencia
      F5           C5
      cerca dela locura


riff  D5                          A#5
      lejos de estar de estar tranquila
      F5             C5
      lejos de la inocencia
riff  D5            A#5
      lejos d la paciencia
      F5           C5    D5 A#5      F5 C5      [Arpegio 2]
      cerca dela locuuuuura.....locuura...locuuuura

---------------------------------------------------------------------------
bueno espero que les sirva y que este bien jaja
les dejo el msn por las dudas maxipoliti_@
Suggest correction
Give kudos to tab author, rate the tab!
1 2 3 4 5
comments
print report bad tab
guest
Wanna post a correction for this tab? Suggest correction