Oops, an error
Loading. Please wait.

Puerto Locura Tab

version 2
version 2

Whole song

23 views 1 this week
no commentswrite comment
1 2 3 4 5
3 more votes to show rating
add to favorites
launch autoscroll
font size
0
reset
how to read this tab
guitar tuner
Autoscroll
slow
fast
+/-
esc
set tempo
stop
Help us to improve Ultimate-Guitar.com Take our survey!
×
Hola, aca les dejo el gran solo de eeste temón de guillermina!
------------------------------------------------------------------------

 A#5
e|-------------------------------|
B|-13h15h17-18-17p15-17-13-13----|
G|-------------------------------|
D|-------------------------------|
A|-------------------------------|
E|-------------------------------|

        G5
e|-------------------------------|
B|-13h15h17-18-17p15-17-13-------|
G|-------------------------14-12-|
D|-------------------------------|
A|-------------------------------|
E|-------------------------------|


           D5                    A#5
e|---------------------------------------|
B|---------------------------------------|
G|-10h12-12b14-10---------------10p9-----|
D|-------------------12-10h12------12-10-|
A|---------------------------------------|
E|---------------------------------------|

         G5                F5
e|---------------------------------------|
B|---------------------------------------|
G|----------------------------------9h10--
D|----------10-10-------------10h12------|
A|-10-10h12-------12-10-10h12------------|
E|---------------------------------------|

                          A#5
e|---------------------------------------|
B|------------------13-------------------|
G|-10p9-10-12-b14--------b14b14----------|
D|---------------------------------------|
A|---------------------------------------|
E|---------------------------------------|


      G5
e|---------------------------------------|
B|---------------------------------------|
G|------------12-10-9-9h15-10-9h10-10h12-|
D|-8-10b12-------------------------------|
A|---------------------------------------|
E|---------------------------------------|


            D5           A#5
e|-------------------------------------|
B|----11-13-----13---------------------|
G|-14-------10-----14-12---------------|
D|-----------------------12------------|
A|-------------------------------------|
E|-------------------------------------|

                       G5           F5
e|-------------------------13-----------13----|
B|-13p10----------------------13--------------|
G|-------12p10-------12b14-------12b14--------|
D|-------------12h15--------------------------|
A|--------------------------------------------|
E|--------------------------------------------|

          A#5
e|-13-15-15h17-15h17-15-13p10-15h17-------|
B|----------------------------------------|
G|----------------------------------------|
D|----------------------------------------|
A|----------------------------------------|
E|----------------------------------------|

                 G5
e|-15h17-15-------------------------------|
B|----------15p13-15----------------------|
G|--------------------15p14-12----14h15-14|
D|-----------------------------15---------|
A|----------------------------------------|
E|----------------------------------------|

           D5               A#5
e|-13-15-15h17-15h17-15p13-15p13----------|
B|-------------------------------15-------|
G|----------------------------------------|
D|----------------------------------------|
A|----------------------------------------|
E|----------------------------------------|

              G5              F5
e|----13-15h17-13-----13-15h17-13---------|
B|-15--------------15---------------------|
G|----------------------------------------|
D|----------------------------------------|
A|----------------------------------------|
E|----------------------------------------|

                        A#5
e|-----------------13-17-18-18p17-13------|
B|-13h15-13-------------------------------|
G|----------14----------------------------|
D|-------------15-------------------------|
A|----------------------------------------|
E|----------------------------------------|

          G5                      D5              A#5
e|-17-18-20-20h22-20-18-15--------------------------------|
B|--------------------------13p11-------------------------|
G|--------------------------------14-12h14-12----12h14----|
D|--------------------------------------------15-------12-|
A|--------------------------------------------------------|
E|--------------------------------------------------------|

         G5              F5
e|-13p12----------------------------------------|
B|-------15-13h15-13----------13-10h13----------|
G|-------------------14-12h14----------10-------|
D|----------------------------------------------|
A|----------------------------------------------|
E|----------------------------------------------|

         A#5
e|--------------------------------------------------------|
B|-10-10-10b11--------------------------------------------|
G|-10-10-10b11-------10-10-------10-10-------10-10--------|
D|-------------12p10-------12p10-------12p10-------12p10--|
A|--------------------------------------------------------|
E|--------------------------------------------------------|

            G5
e|--------------------------------------------------------|
B|--------------------------------------------------------|
G|-12p10-12p10----12-12p10----12-12p10----12-12p10-12-----|
D|-------------12----------12----------12-----------------|
A|--------------------------------------------------------|
E|--------------------------------------------------------|

         D5           A#5                 G5
e|---------------------------------------------------------
B|-------13----15--13----13-15-----13---------------------|
G|-12h14----14--------14-------10-----12b14b12-10-10------|
D|--------------------------------------------------------|
A|--------------------------------------------------------|
E|--------------------------------------------------------|

               F5
e|-----------13-13-13------------|
B|-----------13-13-13------------|
G|----10-----14-14-14------------|
D|-10----10--15-15-15------------|
A|-------------------------------|
E|-------------------------------|

                      A#5
e|---------------------------------------------------|
B|------------------12h15--15-13p12p10-10h15-15------|
G|---------10h12-10----------------------------------|
D|-8h10h12-------------------------------------------|
A|---------------------------------------------------|
E|---------------------------------------------------|


        G5                            D5         A#5
e|-----10----12-----13-------15--20-20h22-22-20p19h20--|
B|-----------------------------------------------------|
G|-5h7-7-7h9-9-9h10-10-10h12-12------------------------|
D|-----------------------------------------------------|
A|-----------------------------------------------------|
E|-----------------------------------------------------|

        G5               F5
e|-13--------------------|
B|----13h15-13h15--------|
G|-----------------------|----> La terminé aca, porque despues
D|-----------------------|      va bajando el volumen y es practicamente
A|-----------------------|      imposible sacar las notas que siguen.
E|-----------------------|


Espero que les guste, desde Bragadoo
AGUANTE GUILLERMINA!!!
Suggest correction
Give kudos to tab author, rate the tab!
1 2 3 4 5
comments
print report bad tab
guest
You may want to rate the tab now too:
select rating
Wanna post a correction for this tab? Suggest correction