Oops, an error
Loading. Please wait.

Rabia tab

2 views 1 this week
no commentswrite comment
1 2 3 4 5
3 more votes to show rating
add to favorites
×
Save as Personal and add changes to this tab that will be seen only by you. Learn more ›
×
You can save this tab as Personal to edit and correct it or add notes. All changes will be seen only by you. Learn more »
launch autoscroll
font size
0
reset
how to read this tab
guitar tuner
edit
Autoscroll
slow
fast
+/-
esc
set tempo
stop
Intro: G - F - F# (Acústica) X2

 G
Cuando comen

Cuando viajan
          F F# G
Cuando gozan.
G
Los que apestan

Los de al lado
            F F# G
Los que mueren.

G
Todo lo que ostente el hombre
                         F F# G
Volverá como rabia hacia él.
G
Todo lo que ostente el hombre
                         F F# G
Volverá como rabia hacia él.

Riff N°1: (Distorsión)

e|---------------------------------
B|---------------------------------
G|---------------------------------
D|--------------3-4----------------
A|--------------3-4----------------
E|-1h3p1h3-(X3)-1-2---------------- (X4)


 G5
Como comen

Como viajan
        F5 F#5
Como gozan.
 G5
Los que comen

Los que viajan
           F5 F#5
Los que gozan.

Riff N°2: (Base de la sig. estrofa)

e|---------------------------------
B|---------------------------------
G|---------------------------------
D|--------------3-4----------------
A|--------------3-4----------------
E|-1h3-3-3-(X3)-1-2----------------

Están del lado bueno
Están del lado limpio

Donde el mismo dios los dejó

No es raro que lo cuiden

Que cuiden lo que tienen

Lo que tienen como su posesión


Estribillo: En base al riff N°1


Todo lo que ostente el hombre

Volverá como rabia hacia él.

Todo lo que ostente el hombre

Volverá como rabia hacia él.

 G5
Cuando comen

Cuando viajan
          F5 F#5
Cuando gozan.
 G5
Los que apestan

Los de al lado
            F5 F#5
Los que mueren.


Riff N°2: (Base de la sig. estrofa)

e|---------------------------------
B|---------------------------------
G|---------------------------------
D|--------------3-4----------------
A|--------------3-4----------------
E|-1h3-3-3-(X3)-1-2----------------


Están del lado malo

Están del lado sucio

Donde el mismo Dios los dejó

No es raro que lo quieran

Que quieran lo que tienen

Lo que tienen como una obsesión.


Estribillo: En base al riff N°1


Todo lo que ostente el hombre

Volverá como rabia hacia él.

Todo lo que ostente el hombre

Volverá como rabia hacia él.

Riff N°3:
e|---------------------------------
B|---------------------------------
G|---------------------------------
D|----------------3-4--------------
A|----------------3-4--------------
E|-3h6p3-3-3-(X3)-1-2--------------(X2)


Solo: Base Riff N°3


Estribillo(X2): En base al riff N°1


Todo lo que ostente el hombre

Volverá como rabia hacia él.

Todo lo que ostente el hombre

Volverá como rabia hacia él.


Estribillo(X2): En base al riff N°2


Todo lo que ostente el hombre

Volverá como rabia hacia él.

Todo lo que ostente el hombre

Volverá como rabia hacia él.


Final: G5

Bueno eso es todo!
Intenté dejarlo lo más claro posible,
Pasa que el riff N°1 Y el N°2 son muy
Parecidos y se intercalan en el tema,
Hay que escucharlo bien, y así me podrán
Corregir o no =).
Cualquier, sugerencia, duda o lo que sea
Manden mail! (callejero.73@
Suerte!

LaLe.73

            
            
Suggest correction
Creating personal tab
Creating personal tab
You can edit any tab online and save it as your Personal.

You can edit, replace or remove any tab part or add personal notes – all changes will be seen only by you.

Personal tabs can be accessed anytime from any device, even offline.
Learn more »
Give kudos to tab author, rate the tab!
1 2 3 4 5
comments
print report bad tab
guest
Wanna post a correction for this tab? Suggest correction