Oops, an error
Loading. Please wait.

Rojo Tab

8 views 1 this week
no commentswrite comment
1 2 3 4 5
3 more votes to show rating
add to favorites
launch autoscroll
font size
0
reset
how to read this tab
guitar tuner
×
Best way to learn
"Rojo"
Autoscroll
slow
fast
+/-
esc
set tempo
stop
1)
e|---------------------------------------
B|---------------------------------------
G|---------------------------------------
D|------10-10-------7-----5--------------
A|----8-------8?5-------3----------------
E|---------------------------------------

2)
e|---------------------------------------
B|---------------------------------------
G|---------------------------------------
D|------7--7-----5--5-----3--3-----5?5---
A|----5--5-----3?-3-----1--1------3?3----
E|---------------------------------------

3)
e|---------------------------------------
B|---------------------------------------
G|---------------------------------------
D|------7--7-----5--5-----3?-3-*---------
A|----5--5-----3--3-----1--1-------------
E|---------------------------------------

*deja sonar el Bb


estribillo

dm ? C ? Fmaj7 ? Am
dm ? C - Bb


Intro: Riff 1)

1)
Hay que caminar, sin saber porque
Solo por nacer, la existencia es asi.
El porqué de cuando y donde no lo se,
Y me va a matar,
Buscarle la explicación.

2)
Puede ser el karma o una gran maldición.
3)
El hecho es que hay gente que
Nace donde esta la basura

1) x1

1)
?la vida es asi? se resigna el sabio
y en un dia gris
tal vez llore por los muertos.
Es curiosa nuestra forma de actuar
Y de olvidar,
Corriendo tras la fortuna.

2)
Creo en los errores
Y el porque de lo que haces
3)
Y espero que te des cuenta que:
No todos caminamos igual.


Estribillo:

Nunca dejes nadie atrás,
El sol callado ilumina igual.
Si hay prudencia en tus promesas
Y hay riqueza en tu humildad,
Eso es todo para mi,
No quiero mas.

1)
Hay que caminar, a veces sabiendo el porque
Solo por creer, que no siempre sera  asi.
2)
Creo en los errores
Y el porque de lo que haces
Y espero que te des cuenta que:
No todos caminamos igual.

Estribillo:

Nunca dejes nadie atrás,
El sol callado ilumina igual.
Si hay prudencia en tus promesas
Y hay riqueza en tu humildad,
Eso es todo para mi,
No quiero mas.


Aca hay un cambio? (**)
En el camino hay piernas mutiladas
En las calles,
Si sabes escuchar quien debajo espera
Por ti,
Sos la sangre que quiero en mí-

(**) Se usa Bb y C, aunque se escuchan variaciones, como A.

Estribillo?


Dentro de todo, la cancion suena? seguramente
hay q hacerle unos arreglos, y bienvenidos sean?
 igualmente esta tab va dedicada al Taper y a Sepa
q fueron los q me hicieron fanatico de la guillee!

Una manteca!

 cualquier cosa?
Suggest correction
Give kudos to tab author, rate the tab!
1 2 3 4 5
comments
print report bad tab
guest
You may want to rate the tab now too:
select rating
Wanna post a correction for this tab? Suggest correction