Oops, an error
Loading. Please wait.

Shaman Chords

5 views 1 this week
no commentswrite comment
1 2 3 4 5
3 more votes to show rating
add to favorites
launch autoscroll
font size
0
reset
transpose
0
reset
simplify chords
display chords
guitar tuner
Autoscroll
slow
fast
+/-
esc
set tempo
stop
Help us to improve Ultimate-Guitar.com Take our survey!
×
e---------------------------------------------------------------------
B---------------------------------------------------------------------
G---------------------------------------------------------------------
D---------------------------------------------------------------------
A---------------------------------------------------------------------
E--0-0-0-3-0-0-3-3-5--0-0-0-3-0-0-3-3-5--0-0-0-3-0-0-3-3-5--0-0-0-3-5-


E5
Si esta oscuridad me dejara ver,
G5
si el caudal de mi río fuera manso.
A5
Si las piedras vinieran hacia mí,
                         E5
no tendría que andar buscando.


E5
Triste la tarea de este shamán,
G5
no espera que se seque el río.
A5
Se hunde hasta el cuello sin saber
                 E5
si se lo lleva el agua.


Em
En la oscuridad bajará
  C         Bm
y ahí... es donde el miedo confunde
  Am                  Dm                  G
lo deseado, el sueño, el frío y la desilusión.


C                  G             D
Piedras que son la luz de mis venas,
C                    G         D
mi idiotez no me llevará a ellas.

C
Shamán que vive en mí y apuesta a lo perdido,
D                        G           D
falaces esperanzas que apuestan a la vida,
C
buscan otras piedras, debajo de otros rios,
D                      G          D      C
que bajen de montañas, menos traicioneras.

e-----------------
B-----------------
G-----------------
D-----------------
A---3-2-----------
E---------3-2-0---


e---------------------------------------------------------------------
B---------------------------------------------------------------------
G---------------------------------------------------------------------
D---------------------------------------------------------------------
A---------------------------------------------------------------------
E--0-0-0-3-0-0-3-3-5--0-0-0-3-0-0-3-3-5--0-0-0-3-0-0-3-3-5--0-0-0-3-5-


E5
Si esta oscuridad me dejara ver,
G5
si el caudal de mi río fuera manso.
A5                                              E5
y ves, y ves, y ves, y ves, y ves, y ves si fuera manso

Em
En la oscuridad bajará
  C         Bm
y ahí... es donde el miedo confunde
     Am                   Dm                G
lo deseado, el sueño, el frío y la desilusión.


C                  G             D
Piedras que son la luz de mis venas,
C                    G         D
mi idiotez no me llevará a ellas.

C
Shamán que vive en mí y apuesta a lo perdido,
D                        G           D
falaces esperanzas que apuestan a la vida,
C
buscan otras piedras, debajo de otros rios,
D                      G          D      C
que bajen de montañas, menos traicioneras.

e-----------------
B-----------------
G-----------------
D-----------------
A---3-2-----------
E---------3-2-0---


Bueno.. yo ya habia subido este tema pero no se qe paso
asi qe lo tuve qe hacer de nuevo porq se me borro de la compu :P

saludos
y aguante Guillermina
Suggest correction
Give kudos to tab author, rate the tab!
1 2 3 4 5
comments
print report bad tab
guest
You may want to rate the tab now too:
select rating
Wanna post a correction for this tab? Suggest correction