Oops, an error
Loading. Please wait.

Pobre Marinero Tab

128 views 1 this week
no commentswrite comment
1 2 3 4 5
3 more votes to show rating
add to favorites
×
Save as Personal and add changes to this tab that will be seen only by you. Learn more ›
×
You can save this tab as Personal to edit and correct it or add notes. All changes will be seen only by you. Learn more »
save as personal
new!
launch autoscroll
font size
0
reset
how to read this tab
guitar tuner
Autoscroll
slow
fast
+/-
esc
set tempo
stop
Hola, he aquí una nueva transcripción de Guillermo Anderson,
a la que le he dedicado un poco más de tiempo xq es una gran pieza,
espero les guste.

- Los paréntesis indican una posición con la que se juega,
pero no es necesaria
- Los acordes y los riffs están al final de la pieza

Intro (1a y 2a guitarra)

   A9        C#m7                Bm(9)   E  riff1
e -----------7b9s7------------------------------------
B -----------------10-10--9-9/10-7~---7---------------
G -----9-9-------------------------------9~-----------
D ----------------------------------------------------
A ----------------------------------------------------
E ----------------------------------------------------

   A9        C#m7            Bm(9)     E     riff1
e -----------7b9s7-----------10/12--12-12-12---12...---
B -----------------10-10--9----------------------------
G -----9-9---------------------------------------------
D -----------------------------------------------------
A -----------------------------------------------------
E -----------------------------------------------------

   A9        C#m7                Bm(9)     E  riff1
e -----------7b9s7--------------------------
B -----------------10-10--9-9/10-7~---7-----
G -9----9-9-------------------------------9~
D ------------------------------------------
A ------------------------------------------
E ------------------------------------------

   A9        C#m7            Bm(9)      E        riff1
e -----------7b9s7-----------12/14-14--14-14-14-12------12-10-9-10-9~----
B -----------------10-10--9------------------------10--------------------
G -----9-9--------------------------------------------9------------------
D -----------------------------------------------------------------------
A -----------------------------------------------------------------------
E -----------------------------------------------------------------------

A)
A+7                C#m7
mi barca se vio atrapada
                Bm7/(9)
en tu playa de sueños
 E             riff2
luego me ofreciste ser
                A+7  E7/(6) riff2
de tu paisaje el dueño

B)
A+7                   C#m7
las noches han sido hermosas
           Bm7/(9)
los días felices
 E
el sol caribeño
riff2             A+7
me ha borrado cicatrices

C)
C#7
bendición ha sido estar
                    F#m
preso en la blanca espuma
B7
de tu amor en esta playa
            E E7
de sol y de luna

D)
riff2            A+7
¿Qué más puede pedir
     F#7       Bm7/(9)
este pobre marinero?
                 E
que no se quiere ir
riff2              A+7
porque el corazón entero
                  F#m
lo tiene en esta playa
      Bm7   E7   A+7
y lo llama una mujer
   F#7           Bm7
diciendole no te vayas
      E7     A+7
ven y dejate querer

D) ¿Qué mas puede pedir...

Intermedio como intro (los punteos se vuelven más arreglados)

A)
mi barca me llama a veces
y siento el llamado
de los mares que me quieren
ver ilusionado
B)
aventurándome solo
entre olas y en la gloria
de viejos amores que acarician
MI memoria

C)
C#7
bendición ha sido estar
                    F#m
preso en la blanca espuma
B7
de tu amor en esta playa
            riff2  E7
de sol y de luna

D)¿Qué más puede pedir...

Intermedio

C)...
D)...

Cierre como intro

Ven y dejate querer...
Ven y dejate querer...

Final: A+7

Estos riffs son pasos entre algún E y un A x lo general,
y tienen una pequeña diferencia en la velocidad y un
deslizado (riff2 + lento)

Riff1          Riff2
e ----------||--------------
B ----------||--------------
G --1-2/4---||--1--2--4-----
D ----------||--------------
A --------0-||--------------
E -0--2/4---||--0--2--4-----

Acordes:

A9:     X02200
C#m7:   X46454
Bm:     X24432
Bm7:    X24232
Bm9:    X24422
Bm7/9:  X24222
A+7:    002120
E:      022100
E7:     020100
E7/6:   020120
F#m:    244222
F#7:    242322
Suggest correction
Give kudos to tab author, rate the tab!
1 2 3 4 5
comments
print report bad tab
guest
Wanna post a correction for this tab? Suggest correction