Oops, an error
Loading. Please wait.

No Se Puede Ceder Bass Tab

25 views 1 this week
no commentswrite comment
1 2 3 4 5
3 more votes to show rating
add to favorites
launch autoscroll
font size
0
reset
guitar tuner
Autoscroll
slow
fast
+/-
esc
set tempo
stop
Help us to improve Ultimate-Guitar.com Take our survey!
×
NO SE PUEDE CEDER - GUILLOTINA
INTRO
G|--------2-----|-----------|--------------|
D|--------2-----|-----------|--------------|
A|-------(0)----|-----------|--------------|
E|--------------|-----------|--------------|
 Verso

G|-----------------------------|-----------------------------|
D|-----------------------------|-----------------------------|
A|-0--0-0/3/0--0-0--0--0-3/0/3-|-3--3-3/6/3--3-3--3--3-6/3/6-|
E|-----------------------------|-----------------------------|
  La                            Do
G|-----------------------------|-----------------------------|Fin del
D|-0--0-0/3/0--0-0--0--0-3/0/3-|-----------------------------| Verso
A|-----------------------------|-0--0-0/3/0--0-0--0--0-3/0/3-|
E|-----------------------------|-----------------------------|
  Re                            La

G|-------------------------|--------------------|
D|----------7-5(5)/4/5/4---|-----7-5(5)/4/5/4---|
A|---------7-------------4-|----7-------------4-|
E|-(0)/2/5----------------2|/5-----------------2|
                            Se repite 3 veces

G|-----------------------------Varias veces
D|-----------------------------|
A|-0--0-0/3/0--0-0--0--0-3/0/3-|
E|-----------------------------|

G|-----6------------------|
D|---8---8----------------|
A|-6---------6-6-6-6-6-6--|
E|------------------------|

G|-------------------------------------------------------------|
D|-------7-----5-7---5-7----10-8----8--------------------------|
A|--0-0-(0)--7-----7------0------10---10-8-10-8----8-10-8------|
E|----------------------------------------------11--------11-8-|

G|-------------------------|--------------------|
D|----------7-5(5)/4/5/4---|-----7-5(5)/4/5/4---|
A|---------7-------------4-|----7-------------4-|
E|-(0)/2/5----------------2|/5-----------------2|
                            Se repite 3 veces

G|-----------------------------| Varias veces
D|-----------------------------|
A|-0--0-0/3/0--0-0--0--0-3/0/3-|
E|-----------------------------|

G|-----6------------------|
D|---8---8----------------|
A|-6---------6-6-6-6-6-6--|
E|------------------------|
Solo
G|-------------------------------------------------------------|Solo Manco
D|-------7-----5-7---5-7----10-8----8--------------------------|
A|--0-0-(0)--7-----7------0------10---10-8-10-8----8-10-8------|
E|----------------------------------------------11--------11-8-|


G|-----------------|-----------------|-----|
D|----10-8----8----|----10-8----8----|--7--|
A|--0------10---10-|--0------10---10-|--0--|
E|-----------------|-----------------|-----|
                    Se repite varias veces
Puede tener correcciones,
Mándalas a cbr_13@
Suggest correction
Give kudos to tab author, rate the tab!
1 2 3 4 5
comments
print report bad tab
guest
You may want to rate the tab now too:
select rating
Wanna post a correction for this tab? Suggest correction