Oops, an error
Loading. Please wait.

Otra Vez Bass Tab

17 views 1 this week
no commentswrite comment
1 2 3 4 5
3 more votes to show rating
add to favorites
launch autoscroll
font size
0
reset
guitar tuner
Autoscroll
slow
fast
+/-
esc
set tempo
stop
Help us to improve Ultimate-Guitar.com Take our survey!
×
Intro (silencio)
Verso 1 (silencio)

Pos verso 2
|----------------4-------------4--------------------------------------------------|
|---------------6---------------6-------------------------------------------------|
|---------------------------------------------------7-7-7--------------------7----|
|-0/1/2/3/4-4-0----0/1/2/3/4-4-0----0/1/2/3/4-4-0--4-4---4----0/1/2/3/4-4-0---7-4-|


Verso 3
|------------------------------4--------------------------------------------------|
|-------------------------------6-------------------------------------------------|
|---------------7-----------------------------------7-7-7--------------------7----|
|-0/1/2/3/4-4-0----0/1/2/3/4-4-0----0/1/2/3/4-4-0--4-4---4----0/1/2/3/4-4-0---7-4-|


Verso 4
|--------------4-----------------9----------------------------|
|---------------6-----------------9---------------------------|
|-----------------------------------------------7---7---------|
|-0/1/2/3/4-4-0----0/1/2/3/4-4-0----0/1/2/3/4-4----4-4---7-4--|


CORO
|-----------------------------------------|
|---------------------------------------2-|
|-2--2-2--2-2--1--1-1--1-1----------2-2---|
|---2-2--2-2-----1-1--1-1--3-3--3-3-------| X2


Pos verso 5
|----------------4-------------4--------------------------------------------------|
|---------------6---------------6-------------------------------------------------|
|---------------------------------------------------7-7-7--------------------7----|
|-0/1/2/3/4-4-0----0/1/2/3/4-4-0----0/1/2/3/4-4-0--4-4---4----0/1/2/3/4-4-0---7-4-|


Verso 6
|--------------4-----------------9----------------------------|
|---------------6-----------------9---------------------------|
|-----------------------------------------------7---7---------|
|-0/1/2/3/4-4-0----0/1/2/3/4-4-0----0/1/2/3/4-4----4-4---7-4--|


CORO
|-----------------------------------------|
|---------------------------------------2-|
|-2--2-2--2-2--1--1-1--1-1----------2-2---|
|---2-2--2-2-----1-1--1-1--3-3--3-3-------| X2


SOLO LIRA
|------------------------------------------------------|
|------------------------------------------------------|
|-----9-9--------------9-9---11/12-12--11/12-2--11/12--|
|-7-7-----7-7-4-4--7-7---------------------------------|X2


CORO
|-----------------------------------------|
|---------------------------------------2-|
|-2--2-2--2-2--1--1-1--1-1----------2-2---|
|---2-2--2-2-----1-1--1-1--3-3--3-3-------| X2


Verso 7
|------------------------------4--------------------------------------------------|
|-------------------------------6-------------------------------------------------|
|---------------7-----------------------------------7-7-7--------------------7----|
|-0/1/2/3/4-4-0----0/1/2/3/4-4-0----0/1/2/3/4-4-0--4-4---4----0/1/2/3/4-4-0---7-4-|


Verso 8
|--------------4-----------------9----------------------------|
|---------------6-----------------9---------------------------|
|-----------------------------------------------7---7---------|
|-0/1/2/3/4-4-0----0/1/2/3/4-4-0----0/1/2/3/4-4----4-4---7-4--|


CORO
|-----------------------------------------|
|---------------------------------------2-|
|-2--2-2--2-2--1--1-1--1-1----------2-2---|
|---2-2--2-2-----1-1--1-1--3-3--3-3-------| X2


FINAL
|-------------------------------------------------------------------|
|-------------------------------------------------------------------|
|-2--2-2--2-2--1--1-1--1-1-------------------------------------2----|
|---2-2--2-2-----1-1--1-1--3-3--3-3--3--3-3--3-3--3--3-3---3-3---0--|
Suggest correction
Give kudos to tab author, rate the tab!
1 2 3 4 5
comments
print report bad tab
guest
You may want to rate the tab now too:
select rating
Wanna post a correction for this tab? Suggest correction