Oops, an error
Loading. Please wait.

Otra Vez Tab

23 views 1 this week
no commentswrite comment
1 2 3 4 5
2 more votes to show rating
add to favorites
launch autoscroll
font size
0
reset
how to read this tab
guitar tuner
Autoscroll
slow
fast
+/-
esc
set tempo
stop
Help us to improve Ultimate-Guitar.com Take our survey!
×
=================================================
Tablatura por ADRIANLOCO
(adrianloco@
=================================================

riff 1: 13 times
riif 2: 1 time
riff 3: 4 times
riff 1: 4 times
riff 3: 3 times
riff 4: 1 time
riff 5: 2 times
riff 1: 4 times
riff 3: 3 times
riff 4: 1 time
riff 5: 2 times
SOLO
riff 5: 2 times
riff 1: 6 times
riff 3: 3 times
riff 4: 1 time
riff 5: 2 times
riff 6: 1 time

-----5-1-1------|-------------------------------------------------------------
-----5-1---1----|-------------------------------------------------------------
-----6-2-----2--|-------------------------------------------------------------
-5/7-7-3--------|-------------------------------------------------------------
-5/7---3--------|-------------------------------------------------------------
-3/5---1--------|-------------------------------------------------------------
 riff 1                                                                       

-----5-1-11-11-5-555-1-111-|--------------------------------------------------
-----5-1-11-11-5-555-1-111-|--------------------------------------------------
-----6-2-22-22-6-666-2-222-|--------------------------------------------------
-5/7-7-3-33-33-7-777-3-333-|--------------------------------------------------
-5/7---3-33-33-7-777-3-333-|--------------------------------------------------
-3/5---1-11-11-5-555-1-111-|--------------------------------------------------
 riff 2                                                                       

-------------------|----------------------------------------------------------
-------------------|----------------------------------------------------------
-------------------|----------------------------------------------------------
-5/7-777-3-333-33--|----------------------------------------------------------
-5/7-777-3-333-33--|----------------------------------------------------------
-3/5-555-1-111-11--|----------------------------------------------------------
 riff 3                                                                       

------------------------------------------------------------------------------
------------------------------------------------------------------------------
-5-555------------------------------------------------------------------------
-5-555-3-333-33---------------------------------------------------------------
-3-333-3-333-33---------------------------------------------------------------
-------1-111-11---------------------------------------------------------------
 riff 4                                                                       

-------------------------------------------------------|----------------------
-------------------------------------------------------|----------------------
-5-555-55-55-5---------5555-------------5-555----------|----------------------
-5-555-55-55-5---------5555xx66xx66xx6xx5-555-3-33-33--|----------------------
-3-333-33-33-2-2-3p2-2-2222xx66xx66xx6xx3-333-3-33-33--|----------------------
---------------------------xx44xx44xx4xx------1-11-11--|----------------------
 riff 5                                                                       

------------------------------------------------------------------------------
------------------------------------------------------------------------------
-5-555-55-55-5---------5555----------------------------------------------5----
-5-555-55-55-5---------5555xx66xx66xx6-xx66xx66xx6-xx66xx66xx6-xx66xx66xx5----
-3-333-33-33-2-2-3p2-2-2222xx66xx66xx6-xx66xx66xx6-xx66xx66xx6-xx66xx66xx3----
---------------------------xx44xx44xx4-xx44xx44xx4-xx44xx44xx4-xx44xx44xx-----
 riff 6                                                                       

---------|--------------------------------------------------------------------
---------|--------------------------------------------------------------------
-555-----|--------------------------------------------------------------------
-555-3---|--------------------------------------------------------------------
-333-3---|--------------------------------------------------------------------
-----1---|--------------------------------------------------------------------
                                                                              

-3-33/5555-553-33/5555-7h9p7-9b11-9-7---7h9p7--------------------15b-15-12----
-3-33/5555-553-33/5555----------------9-------9p7-9b-9b-9b11r9p7--------------
------------------------------------------------------------------------------
------------------------------------------------------------------------------
------------------------------------------------------------------------------
------------------------------------------------------------------------------
 solo                                                                         

----12h15p12----12h15p12----12h15p15------------------------------------------
-15----------15----------15----------15-12--------------12-13-15p13p12--------
-------------------------------------------14vvvv-12-14----------------14-----
------------------------------------------------------------------------------
------------------------------------------------------------------------------
------------------------------------------------------------------------------
                                                                              

-------------------------------------|----------------------------------------
-15b17r15p12-15-12-------------------|----------------------------------------
-------------------14-12-14vvv-14vvv-|----------------------------------------
-------------------------------------|----------------------------------------
-------------------------------------|----------------------------------------
-------------------------------------|----------------------------------------

=================================================
Letra por Christian
(tampicco@
=================================================


Sería normal verte caer
con los mismos defectos de ayer.
Perfecto es el dia en que
dejaran de mencionarte sólo una vez.

Sería normal, verte llorar
olvidando la memoria que ya no está.
Perfecto es el día en que
dejaran de presionarte hasta no ver.

Aquí vas otra vez,
arriesgando lo que no puedes perder.
Aquí vas otra vez,
acabando con lo que podías tener.

Sería capaz de tirar
todo para volverlo a intentar.
Con quién se fue el tiempo
que no nos dejó saber quién era quién.

Sería capaz de tirar
todo para volverlo a intentar.
Muy poco es vivir otra vez
si no podemos saber quién es.
Suggest correction
Give kudos to tab author, rate the tab!
1 2 3 4 5
comments
print report bad tab
guest
You may want to rate the tab now too:
select rating
Wanna post a correction for this tab? Suggest correction