Oops, an error
Loading. Please wait.

Ya Que Tab

8 views 1 this week
no commentswrite comment
1 2 3 4 5
3 more votes to show rating
add to favorites
×
Save as Personal and add changes to this tab that will be seen only by you. Learn more ›
×
You can save this tab as Personal to edit and correct it or add notes. All changes will be seen only by you. Learn more »
save as personal
new!
launch autoscroll
font size
0
reset
how to read this tab
guitar tuner
Autoscroll
slow
fast
+/-
esc
set tempo
stop
LES RECOMIENDO USAR UN DISTOR POR QUE SI NO NO LES 
VA A SONAR, Y EKL FINAL DEL REQUINTO SIENTO, QUE ME FAYA. 
SUERTE


Intro:  (está parte no me sale mucho pero con el distor ya 
se parece)


G--4/6--6-6--4/6--6--0--2/3--3-3--4-4-----I
D--4/6--6-6--4/6--6--0--2/3--3-3--4-4-4---I   x1
A--2/4--4-4--2/4--4-------1--1-1--2-2-4---I
E-------------------------------------2---I


G--4/6--6-6---2/3--3-3--3/4--4-4--3/4-4---I
D--4/6--6-6---2/3--3-3--3/4--4-4--3/4-4-4-I  x1
A--2/4--4-4-----1--1-1--1/2--2-2--1/2-2-4-I
E---------------------------------------2-I


verse:  

No tenemos que perder....

G--4/6--6-6--4/6--6--0--2/3--3-3--4-4-----I
D--4/6--6-6--4/6--6--0--2/3--3-3--4-4-4---I  X4
A--2/4--4-4--2/4--4-------1--1-1--2-2-4---I
E-------------------------------------2---I

RIFF: 

VIVIR CALLANDO A LOS ....


e-------------------I
B----7-6^-4-2^------I
G-/6-----------4--6-I
D-------------------I
A-------------------I
E-------------------I


Chorus:  

Luchamos sin darnos cuenta y perdemos...

G--3--3--3-3----------6--6--6-6-----------I
D--3--3--3-3-4-4-4--4-6--6--6-6-6-6-6--6--I  X4
A--1--1--1-1-4-4-4--4-4--4--4-4-6-6-6--6--I
E------------2-2-2--2-----------4-4-4--4--I 


-----TODO LO ANTERIOR SE REPITE--------------


INTERLUDE: (ESTO ES LO QUE VA ANTES DEL SOLO)

G-----------------------------------------I
D-------------------------------------2h4-I  
A-----------------------------------------I
G-0h1--0h1-0h1-0h1-0x--0h2-0h2-0h2-0h2----I


G-------------------------------------1h3-I
D-----------------------------------------I  
A-----------------------------------------I
G-0h1--0h1-0h1-0h1-0x--0h2-0h2-0h2-0h2----I


Solo:

e----------------------------------------------I
B----7-6^-4-2^------7-6^-7-7/9-7-6-7P6---7-----I
G-/6-----------4--6--------------------6-------I
D----------------------------------------------I
A----------------------------------------------I
E----------------------------------------------I


e----------------------------------------------I
B-9-7-6-7-6-4-6-4-2-4-2-0--------6-------6-7---I
G--------------------------4-6-8---4-6-8-------I
D----------------------------------------------I
A----------------------------------------------I
E----------------------------------------------I

e----------------------------I
B-----6-7-9-----6-8-9-11-13--I
G-6-8-------6-8--------------I
D----------------------------I
A----------------------------I
E----------------------------I


INTERLUDE 2: (MIENTRAS UNO TOCA EL SOLO EL OTRO TOCA ESTO)

ES LO MIS,MO PERO UN POCO MAS RAPIDO


G--4/6--6-6--4/6--6--0--2/3--3-3--4-4-----I
D--4/6--6-6--4/6--6--0--2/3--3-3--4-4-4---I   
A--2/4--4-4--2/4--4-------1--1-1--2-2-4---I
E-------------------------------------2---I


INTERLUDE 3: DESPUES DEL SOLO

gUITARRA 1 HACE EL rIFF

GUITARRA 2 MARACA LA NOTA C5# A5# B5 F5#


   C5 A5# B5 F5#

G--6---3--4------I
D--6---3--4--4---I   
A--4---1--2--4---I
E------------2---I


¡¡¡¡FIN!!!!!


HE AQUI LA LETRA


NO TENEMOS QUE PERDER NADA ES NUESTRO 
TODO ESTÁ EN SU PODER

VIVIR CALLANDO A LOS DEMA ES FACIL
CUANDO NO TIENES QUE DECIR

LUCHAMOS SIN DARNOS CUENTA Y PERDEMOS EL CONTROL
QUEDARNOS A VER LOS RESTOS DE NUESTRA DECEPCIÓN
NUESTRA DIVERCIÓN

EL TIEMPO SE HA ESTANCADO, NOS A BURLADO
TODO SIEMPRE ES IGUAL

LUCHAMOS SIN DARNOS CUENTA Y PERDEMOS EL CONTROL
QUEDARNOS A VER LOS RESTOS DE NUESTRA DECEPCIÓN
NUESTRA DIVERCIÓN


NO TENEMOS QUE PERDER NADA ES NUESTRO 
TODO ESTÁ EN SU PODER

VIVIR CALLANDO A LOS DEMA ES FACIL
CUANDO NO TIENES QUE DECIR

LUCHAMOS SIN DARNOS CUENTA Y PERDEMOS EL CONTROL
QUEDARNOS A VER LOS RESTOS DE NUESTRA DECEPCIÓN
NUESTRA DIVERCIÓN


gRACIAS, GRACIAS AGRADESCO A MI ABUELITA QUE FUE MI 
FUENTE DE INSPIRACIÓN Y SI TIENEN ALGUNA DUDA, 
COMENTARIO, SUGERENCIA (MAS QUE NADA, NO CONFIO EN MI 
MISMO ES MI PRIMER CANCIÓN QUE SACO)O FELICITACIÓN (INOCENTE) 
YA SABEN PAPEL_GRUNGE@
Suggest correction
Give kudos to tab author, rate the tab!
1 2 3 4 5
comments
print report bad tab
guest
Wanna post a correction for this tab? Suggest correction