Oops, an error
Loading. Please wait.

Bar Tab

16 views 1 this week
no commentswrite comment
1 2 3 4 5
3 more votes to show rating
add to favorites
launch autoscroll
font size
0
reset
how to read this tab
guitar tuner
Autoscroll
slow
fast
+/-
esc
set tempo
stop
Help us to improve Ultimate-Guitar.com Take our survey!
×
 Guiso, 'Bar'
 Compuesto por Guiso.
 Del álbum 'Sintonizar el Ruido' (Algo Records, 2002)


Afinación  : D A D G B E


Riff 1
Riff 1.A                            Riff 1.B
|---14--14---------------------|    |--------------------|
|---15--13------------10-------|    |--------------------|
|---14----------10/11----------|    |--------------------|
|-0-----------------------(12)-|    |--0----101010--1010-|
|-0----------------------------|    |--0----8/9-9---8----|
|-0----------------------------|    |--0-----------------|


Riff 2
|-------------------|
|-------------------|
|-------------------|
|-0----101010--1010-|
|-0----8/9-9---8----|
|-0-----------------|


Riff 3
|-------------|
|-------------|
|-10--10------|
|-10--10--0---|
|-X---9---0---|
|-10------0---|


Riff 4
|--------------------|
|--------------------|
|---10---------------|
|---10---------------|
|---X---9---9---9----|
|---10----10--10--10-|


Riff 1
Salio y se va

Salio al Bar

  Riff 3
y salud,
      DO
salud


*Puente:   DO RE FA
           Riff 3 4x
           Riff 4 1x

Riff 3
Sale el Sol, sale el sol

sale junto al bar
                       Riff 4
sale el sol, sale el sol

Riff 3
Sale el sol, sale el sol

sale junto al bar
                        DO RE FA
sale el sol, sale el sol


*Puente:  Riff 1.A
          Riff 1


Riff 1
Salio del bar

y se puso a pensar
           Riff 3        DO
y vio la luz. vio la luz


*Puente:   DO RE FA


Riff 3
Sale el Sol, sale el sol

sale junto al bar
                       Riff 4
sale el sol, sale el sol

Riff 3
Sale el sol, sale el sol

sale junto al bar
                        DO RE FA
sale el sol, sale el sol


*Puente 4x
|----------------------------------|
|----------------------------------|
|----------------------------------|
|-0-3-0-5-0-3-0--0-3-0-------------|
|-0-3-0-5-0-3-0--0-3-0--5--3-------|
|-0-3-0-5-0-3-0--0-3-0--------7--0-|


Punteo & Riff 1.a

|-10b/8-7-------------3---------------3--------------------|
|---------3-----3------3--3-----3------3-------------------|
|-----------4/5---4/5-------4/5---4/5-----4b--2b-----------|
|--------------------------------------------------4b---2b-|
|----------------------------------------------------------|
|----------------------------------------------------------|

Riff 1

RE                          RE
Salió temprano sin disimular
RE                          RE
Salió temprano sin disimular
RE                          RE
Salió temprano sin disimular
RE                          RE
Salió temprano sin disimular

Riff 3
Salió temprano sin disimular
Riff 3
Salió temprano sin disimular
Riff 3
Se vé, se vé, se vé, se veééééé!!!


*Término:  DO RE FA   
           Riff 3 4x   > 2x
           Riff 4 1x  /

4x
|----------------------------------|
|----------------------------------|
|----------------------------------|
|-0-3-0-5-0-3-0--0-3-0-------------|
|-0-3-0-5-0-3-0--0-3-0--5--3-------|
|-0-3-0-5-0-3-0--0-3-0--------7--0-|

|---|
|---|
|---|
|-5-|
|-5-|
|-5-|
Suggest correction
Give kudos to tab author, rate the tab!
1 2 3 4 5
comments
print report bad tab
guest
You may want to rate the tab now too:
select rating
Wanna post a correction for this tab? Suggest correction