Oops, an error
Loading. Please wait.

El Sonido Tab

36 views 1 this week
no commentswrite comment
1 2 3 4 5
3 more votes to show rating
add to favorites
launch autoscroll
font size
0
reset
how to read this tab
guitar tuner
Autoscroll
slow
fast
+/-
esc
set tempo
stop
Help us to improve Ultimate-Guitar.com Take our survey!
×
 Guiso, 'El Sonido'
 Compuesto por Guiso.
 Del álbum 'El Sonido' (Algo Records, 2004)


Riff 1
|---------------------|
|----2----------------|
|----2----------------|
|----2-----2--2-------|
|----0-----2--2--2----|
|-------3--0--0--3----|

Riff 2 (distorción)
|----------------------------|
|----------------------------|
|---------------------2------|
|--2-----2------------2---2--|
|--2--2--2--5-5-5-3-0-0---2--|
|--0--3--0--------------3-0--|

Riff 3
Re|-----------------------------------------|
La|-----------------------------------------|
Mi|--5-3--5-3--5-3--5-3--5-3--3-5-----------|


Intro
      Riff 1  8x


Riff 1
A todos, los que fueron
los mejores que existieron
que han dejado el sonido, no les puedo pedir [La]más


*Puente
    Riff 1 8x (con distorción)


Riff 1
A todos, los que fueron
los mejores que existieron
que han dejado el sonido, no les puedo pedir [La]más


*Puente
    Riff 1 8x (con distorción) Mi5
    Riff 2 4x


Riff 2
Y te pido,
que me digas por favor
no me olvido,
lo de antes fue mejor


(pequeño punteo)


Riff 1
A todos, los que fueron
los mejores que existieron
que han dejado el sonido, no les puedo pedir [La]más


*Puente
    Riff 1 8x (con distorción) Mi5
    Riff 2 4x


Riff 2
Y te pido,
que me digas por favor
no me olvido,
lo de antes fue mejor


[Punteo, a medias...]

|--1/21-----------------------------------|
|--1/21---12-12-12-12-12-12-12-12-12-12---|
|--1/21---15-15-15-15-15-15-15-15-15-15---|
|--1/21-----------------------------------|
|--1/21-----------------------------------|
|--1/21-----------------------------------|

|-------------------------------------------------------------------------|
|-------------------------------------------------------------------------|
|-4-3p2p0-3-3p2p0-3-3p2p0-3-3p2p0-3-3p2p0-3-3p2p0-3-3p2p0--3p2p0-0-0-2-0--|
|-----------------------------------------------------------------2-------|
|-------------------------------------------------------------------------|
|-------------------------------------------------------------------------|

|-----------------------------------------|
|---12---17---12--------------------------|
|---15---20---15---15p14p12-12--12-14-12--|
|-----------------------------14----------|
|-----------------------------------------|
|-----------------------------------------|


Riff 3
Gracias,
Griz,
Mota,
Orate,
Yahaira,
Ramires,
L' PAnita la Mente,
Familia Miranda Díacatorce,
The Ganjas
The Pendex
Hielo Negro,
Gracias, gracias, muchas más


Riff 1 2x Mi5


corrijan!!
Suggest correction
Give kudos to tab author, rate the tab!
1 2 3 4 5
comments
print report bad tab
guest
You may want to rate the tab now too:
select rating
Wanna post a correction for this tab? Suggest correction