Oops, an error
Loading. Please wait.

Flojo Chords

by Guiso
51 views 1 this week
no commentswrite comment
1 2 3 4 5
3 more votes to show rating
add to favorites
launch autoscroll
font size
0
reset
transpose
0
reset
display chords
guitar tuner
×
Best way to learn
"Flojo"
Autoscroll
slow
fast
+/-
esc
set tempo
stop
Riff 1                   Riff 2 (4x)
---------------------    ---------------------
---------------------    ---------------------
---------------------    ---------------------
---------------------    ---------------------
---------------------    -------------5-----5-
--0-0-0-0-0-0-0-0----    -0-0-0-0-5h7---5h7---

Riff 3  (2x)             Riff 4
---------------------    ---------------------------
---------------------    ---------------------------
---------------------    ---------------------------
---------------------    ---------------------------
--7--7--5---5--7--5--    --7--7--5---5--7--5----7--7
----------7----------    ----------7----------------

Riff 1
Riff 2

E - D - D# - Riff 3
Si te sientes mal, ven acá y dimelo

E - D - D# - Riff 3
te aseguro que en la escusa no hay explicacion

E - D - D# - Riff 3
Es mentira para ti, es mentira para mi

E - D - D# - Riff 3
si no entiendes (...)


E - D
Puede ser muy fácil (no lo es)

E - D
puede ser verdad

E - D
puedo apostarlo todo a que nunca vas a actuar

---------------------------------
---------------------------------
-----------------------9---7/5---
---------------------------------
--7--7--5---5--7--5--------------
----------7----------------------

---------------------------------
---------------------------------
-----------------------9---12/11-
---------------------------------
--7--7--5---5--7--5--------------
----------7----------------------


E - D - D# - Riff 3
Si lo ves así, no es mi propia decisión

E - D - D# - Riff 3
yo también tengo sexo y tengo rock and roll

E - D - D# - Riff 3
sólo me perturba en tí, esa estúpida actitud

E - D - D# - Riff 3
de quedarte acostado y no hacer (...)


E - D
Puede ser muy fácil (no lo es)

E - D
puede ser verdad

E - D
puedo apostarlo todo a que nunca vas a (...)


(aquí viene un punteo magnífico que no soy capaz de sacar)


Si tu situación no es fácil..

Cierre

E - D - D#


Humilde.. si hay errores, publiquen la buena..
Suggest correction
Give kudos to tab author, rate the tab!
1 2 3 4 5
comments
print report bad tab
guest
You may want to rate the tab now too:
select rating
Wanna post a correction for this tab? Suggest correction