Oops, an error
Loading. Please wait.

Lento Voy Chords

by Guiso
9 views 1 this week
no commentswrite comment
1 2 3 4 5
3 more votes to show rating
add to favorites
launch autoscroll
font size
0
reset
transpose
0
reset
display chords
guitar tuner
×
Best way to learn
"Lento Voy"
Autoscroll
slow
fast
+/-
esc
set tempo
stop
Afinación  : D A D G B E

Guitarra 1

Parte inicial (artas veces.. siguiendo la secuencia)
3x
-----------------------
-----------------------
-----------------------
---7----7--9--7--9/10/9
---0----0--0--0--0-----
-----------------------
1x
---------12----------------
------13----13-------------
---14----------------------
---------------------------
---------------------------
---------------------------

3x
-----------------------
-----------------------
-----------------------
-----------------------
---5---5--7--5--7/8/7--
---0---0--0--0--0------
1X
una cuestión que nose que es...


Verso 2

CUANDO TE MIRO A LOS OJOS...
------------------------
------------------------
------------------------
----8888888877777777----
----6666666655555555----
------------------------


no es muy buena, pero la idea es que se animen a sacar mejores...
Suggest correction
Give kudos to tab author, rate the tab!
1 2 3 4 5
comments
print report bad tab
guest
You may want to rate the tab now too:
select rating
Wanna post a correction for this tab? Suggest correction