Oops, an error
Loading. Please wait.

Violeta Chords

17 views 1 this week
no commentswrite comment
1 2 3 4 5
3 more votes to show rating
add to favorites
launch autoscroll
font size
0
reset
transpose
0
reset
display chords
guitar tuner
Autoscroll
slow
fast
+/-
esc
set tempo
stop
Help us to improve Ultimate-Guitar.com Take our survey!
×
Afinación EADGBE

Riff 1
   Am           Am
e|------0-------------0---------       Re/Fa#: 2X0230
B|------1-------------1---------       Do    : X32010
G|--2-2-2---------2-2-2---------       Do/Sol: 3X2010
D|--2-2-2---------2-2-2---------       Lam   : 002210
A|--0-0-0---------0-0-0---------       Lam*  : 002230
E|---------0--3b---------0--3b--


Riff 1
Dicen que los recuerdos
Riff 1
se borran, se tiñen, se vuelven lentos
     D/FA#              C   C/SOL     Riff 1
pero los quiero y guardo para que esten bien


Riff 1
Pienso que no lo tengo
Riff 1
que digo lo justo para perderlo
     D/FA#          C      C/SOL      Riff 1
sueño contigo lo que siempre quise hacer
D/FA#             C (VI 0 - 2)
sin embargo parece ser,
D/FA#             C    C/SOL     Riff 1
que sufir merecido es la ley, no lo puedo creer


Riff 1
Veo la mesa puesta
Riff 1
la luz que se cuela por esa puerta
      D/FA#              C     C/SOL    Riff 1
entro tranquilo aunque no quiero estar aquí


Riff 1
Sirven con calma tensa
Riff 1
los platos son frios la boca abierta
D/FA#            C         C/SOL    Riff 1
nadie pregunta al otro como le fue ayer
D/FA#                 C (VI 0 - 2)
es temprano, es fin de mes,
D/FA#             C        C/SOL    Riff 1
solo me sobra este pedazo de piel y la mugre en mis pies


Riff 1
Fotos sobre la mesa menor
Riff 1
los retratos, lo que aconteció,
Riff 1
tu respiras, yo guardo pulmón,
Riff 1
es verano y no hace calor
      D/FA#                C     C/SOL           Riff 1
ya no distingo muy bien si me deja feliz o me hace sufrir


Riff 1
Basta de mi, hablemos de él
Riff 1
los huesos son del perro se les puede comer
         D/FA#                   C          Dol/Sol
ya no me ocultes el fin, soy como todo hombre que nace para morir
D/FA#                 C (VI 0 - 2)
lo he pensado (¿****?)
D/FA#       C     C/SOL                    Riff 1
es necesario subir y gritar, yo me acuerdo de ti


Riff 1
Para seguir despierto
Riff 1
escribo los versos y no me entiendo
     D/FA#       C        C/SOL   Riff 1
miro camino falta poco y es verdad


Riff 1
Piso tus pasos muertos
Riff 1
me pongo el vestido que llevas puesto
        D/FA#       C      C/SOL     Riff 1
toco la sombra de tu cara en la pared
D/FA#         C         (VI 0 - 2)
no me oyes despues de amar
D/FA#                C       C/SOL                Riff 1
no me juzgues cuando quiero probar que la culpa se va


Punteo.

e|---/-8---8-----8-----8-------8----3---3-----3-----3-------3----
B|---/10-----10----10----10-----10--5------5-----5-----5-----5---
G|---------------------------------------------------------------
D|---------------------------------------------------------------
A|---------------------------------------------------------------
E|---------------------------------------------------------------

e|---------------------------------------------------------------
B|---/-5---5-----5-----5-------5----2---2-----2-----2-------2----
G|---/-7------7-----7-----7------7--5------5-----5-----5------5--
D|---------------------------------------------------------------
A|---------------------------------------------------------------
E|---------------------------------------------------------------


Cierre:  Am - Am*
Suggest correction
Give kudos to tab author, rate the tab!
1 2 3 4 5
comments
print report bad tab
guest
You may want to rate the tab now too:
select rating
Wanna post a correction for this tab? Suggest correction