Oops, an error
Loading. Please wait.

Super Brothers tab

1,251 views 1 this week
1 commentread comment
1 2 3 4 5
1 last vote to show rating
add to favorites
×
Save as Personal and add changes to this tab that will be seen only by you. Learn more ›
×
You can save this tab as Personal to edit and correct it or add notes. All changes will be seen only by you. Learn more »
launch autoscroll
font size
0
reset
how to read this tab
guitar tuner
edit
Autoscroll
slow
fast
+/-
esc
set tempo
stop
-------------------------------------------------------------------------------
                             Super Brothers - Guitar Vader
-------------------------------------------------------------------------------

By: zero
Standard tunning(EADGBe)
Standard tunning(Bass) (EADG)

Guitar:intro
e|-5-5-5-5-5-5-5-5--4-4-4-4-4-4-4-4--5-5-5-5-5-5-5-5--4-4-4-4-4--------------|
B|-7-7-7-7-7-7-7-7--6-6-6-6-6-6-6-6--7-7-7-7-7-7-7-7--6-6-6-6-6--------------|
G|-5-5-5-5-5-5-5-5--4-4-4-4-4-4-4-4--5-5-5-5-5-5-5-5--4-4-4-4-4--------------|
D|-7-7-7-7-7-7-7-7--6-6-6-6-6-6-6-6--7-7-7-7-7-7-7-7--6-6-6-6-6--------------|
A|-5-5-5-5-5-5-5-5--4-4-4-4-4-4-4-4--5-5-5-5-5-5-5-5--4-4-4-4-4--------------|
E|---------------------------------------------------------------------------|

Bass:post intro slide
G|---------------------------------------------------------------------------|
D|---------------------------------------------------------------------------|
A|---------------------------------------------------------------------------|
E|-0--/5---------------------------------------------------------------------|

Guitar:verse(play with heavy distortion)
e|---------------------------------------------------------------------------|
B|---------------------------------------------------------------------------|
G|----------5-5-----------5-5-----------5-5-----------5-5--------------------|
D|-7-7-7-7--5-5--7-7-7-7--5-5--7-7-7-7--5-5--7-7-7-7--5-5--------------------|
A|-7-7-7-7--3-3--7-7-7-7--3-3--7-7-7-7--3-3--7-7-7-7--3-3--------------------|
E|-5-5-5-5-------5-5-5-5-------5-5-5-5-------5-5-5-5-------------------------|

bass: verse
G|---------------------------------------------------------------------------|
D|---------------------------------------------------------------------------|
A|-0-0-0-0--3-3--5--0-0-0-0--3-3--5--0-0-0-0--3-3--5-------------------------|
E|---------------------------------------------------------------------------|

Guitar chorus:who are you, whats your name...
e|---------------------------------------------------------------------------|
B|---------------------------------------------------------------------------|
G|---------------------------------------------------------------------------|
D|-7-7--7-7--7-7--7-7--7-7--7-7----------------------------------------------|
A|-7-7--7-7--7-7--7-7--7-7--7-7----------------------------------------------|
E|-5-5--5-5--5-5--5-5--5-5--5-5----------------------------------------------|

bass:chorus
G|---------------------------------------------------------------------------|
D|---------------------------------------------------------------------------|
A|-0-0--0-0--0-0--0-0--0-0--0-0----------------------------------------------|
E|-------------------------------0--/5---------------------------------------|

Guitar:bridge(play with increasing rythem)
e|---------------------------------------------------------------------------|
B|---------------------------------------------------------------------------|
G|---------------------------------------------------------------------------|
D|-7-7-7-7--5-5-5-5--7-7-7-7--5-5-5-5--7-7-7-7--5-5-5-5----------------------|
A|-7-7-7-7--5-5-5-5--7-7-7-7--5-5-5-5--7-7-7-7--5-5-5-5----------------------|
E|-5-5-5-5--3-3-3-3--5-5-5-5--3-3-3-3--5-5-5-5--3-3-3-3----------------------|

Bass:Bridge
G|---------------------------------------------------------------------------|
D|---------------------------------------------------------------------------|
A|---------------------------------------------------------------------------|
E|-5-5-5-5--3-3-3-3--5-5-5-5--3-3-3-3--5-5-5-5--3-3-3-3----------------------|

            
            
Suggest correction
Creating personal tab
Creating personal tab
You can edit any tab online and save it as your Personal.

You can edit, replace or remove any tab part or add personal notes – all changes will be seen only by you.

Personal tabs can be accessed anytime from any device, even offline.
Learn more »
Give kudos to tab author, rate the tab!
1 2 3 4 5
comments
print report bad tab
1 comment total.
0 reply
Mega_Fan_08 12 Jul 26, 2017 07:32 PM, edited on July 27 2017, 12:11 am

I wonder why I can't suggest a correction for this song...

guest
Wanna post a correction for this tab? Suggest correction