Oops, an error
Loading. Please wait.

A Monteros Tab

29 views 1 this week
no commentswrite comment
1 2 3 4 5
3 more votes to show rating
add to favorites
×
Save as Personal and add changes to this tab that will be seen only by you. Learn more ›
launch autoscroll
font size
0
reset
how to read this tab
guitar tuner
Autoscroll
slow
fast
+/-
esc
set tempo
stop
Intro:

                                       E7
e|----12-12-12-12-----10-10----9--9--7-7---10-10--10-10---9--9---9--9--|
B|-----------------12-------12-10-10-9-9---12-12--12-12---10-10--10-10-|
G|---------------------------------------------------------------------|
D|-11------------------------------------------------------------------|
A|---------------------------------------------------------------------|
E|---------------------------------------------------------------------|
          A                                          E7
e|-7-7--5-5------12-12-12-12-----10-10-----14-14--14-14-12-11-12-|
B|-9-9--7-7-------------------12-------12--15-15--15-15----------|
G|---------------------------------------------------------------|
D|------------11-------------------------------------------------|
A|---------------------------------------------------------------|
E|---------------------------------------------------------------|
                               A
e|--------------------------------|
B|--------------------------------|
G|--------------------------------|
D|---------------------0-2-1-0----|
A|-------0-2-4-2-0-2-4---------4--|
E|-0-2-4--------------------------|


               A                      E7
A ella que le gusta que todos la nombren
                                  A
con una guitarra y un bombo legüero.
                                     (B7)E7
A ella que le gusta que le enciendan coplas
                                 A
por eso te nombra mi canto Monteros.


A ella que me viene de chango mirando
al ingenio tibio corazón de hierro.
A ella que las cañas la visten de verde
por eso te nombra mi canto Monteros.


       A7              D
Y más dulce que tu guarapo
         E                    A
son las niñas que hay en tu pueblo
                                       E7
se que por tus venas de azúcar despiertas
                               A
toda la alegría mi linda Monteros
 A7    D         A7  D
lara, la, lala, la....
            E7                A
toda la alegría mi linda Monteros.

Intro

A ella que el poeta la vio tempranera
tarareando duendes de vinos pateros
y dejo en tu cielo la rosa galana
por eso te nombra mi canto Monteros.

A ella que en noviembre le pide a los grillos
otra vez el canto del hombre zafrero.
A ella que le gusta que le enciendan coplas
por eso te nombra mi canto Monteros.

Y más dulce que tu guarapo...
Suggest correction
Give kudos to tab author, rate the tab!
1 2 3 4 5
comments
print report bad tab
guest
You may want to rate the tab now too:
select rating
Wanna post a correction for this tab? Suggest correction