Oops, an error
Loading. Please wait.

Febrero En Mi Alma Tab

61 views 1 this week
no commentswrite comment
1 2 3 4 5
3 more votes to show rating
add to favorites
launch autoscroll
font size
0
reset
how to read this tab
guitar tuner
Autoscroll
slow
fast
+/-
esc
set tempo
stop
Help us to improve Ultimate-Guitar.com Take our survey!
×
Hola aca les dejo las tablaturas y los acordes! Espero que les guste

 Intro: LA#m-SI#m-REM#


E---12p13---12---10---9----7------10-10-10-10-10
B---13------13---12---10---9--------------------
G-----------------------------------------------
D-------------------------------9---------------
A-----------------------------------------------
E-----------------------------------------------

--8--8------------------------------------------------
------------------------------------------------------
---9--------------------------------------------------
---------------------------------------------------2--
----------------0--1--2--0--1--2--4--5--0--2--4--5----
---------0--2--4--------------------------------------

Despues del punteo entra haciendo base con Mi7-Lam-Do-Mi7-Lam


 LAm  SOL   FA    MI7
Lunita de cafayate
                     LAm
Farol de la noche del caminante
 LA7            REm
Airosa en tus alamedas
 SI7             MI7
cuando ella tiñe los valles

Perfil de la madrugada
Con bombo y guitarra la serenata
Y en vuelo de poncho Salteño
Se eleva al cielo el lucero
  DO       RE7
Ay salta, donosa!
 MI7           LAm
Quiero morirme cantando
   LA7             REm
Y el vino renace en la zamba
 SI7               MIm
Cuando los duendes te abrazan
Y el vino renace en la zamba
Canta febrero en mi alma

Zambitas que son de antaño
Los viejos cantores te irán nombrando
creciendo va en su garganta
Copla vallista endiablada

El vino viejo mañero
se me mete en el canto del guitarrero
presente en la salamanca
voy a quedarme hasta el alba.


Listo espero que les guste y suerte en su carrera musical!!
Suggest correction
Give kudos to tab author, rate the tab!
1 2 3 4 5
comments
print report bad tab
guest
You may want to rate the tab now too:
select rating
Wanna post a correction for this tab? Suggest correction