Oops, an error
Loading. Please wait.

La Amorosa Tab

28 views 3 this week
no commentswrite comment
1 2 3 4 5
3 more votes to show rating
add to favorites
launch autoscroll
font size
0
reset
how to read this tab
guitar tuner
×
Best way to learn
"La Amorosa"
Autoscroll
slow
fast
+/-
esc
set tempo
stop
Intro:
e|---------3----------------10-8-7~-------------------------10-11-8~-|
B|---3-4-6---4------------8-------------3-4-6-3-----------8----------|
G|-5-----------5--------------------4-5---------4--------------------|
D|---------------5--------------------------------5------------------|
A|-----------------6-5-3----------------------------5-3-2------------|
E|-------------------------------------------------------------------|

e|-4--4-3-4-3-1--/11--11-11--10-11-10-8---3-------5-------7-------8--|
B|-6--6-4-6-4-3-----------------------------4---4---6---6---8---8-9--|
G|-5------------------------------------------5-------7-------9---10-|
D|-------------------------------------------------------------------|
A|-------------------------------------------------------------------|
E|-------------------------------------------------------------------|


C        D7         G7
Arden mis labios por ti
              C
muriendome de amor
                D7
por que eres mi dueña
G7     F  C        G7   C
santiagueña de mi corazón

Temblando vuelves a mi
llamandome tu voz
carita risueña
santiagueña de mi corazón

Cm                         G7
Dormiran mis ojos sobre tu pelo
                     Cm
como en las abras el sol
                      C7
amorosa flor de mi tierra
Fm                G7               C
miel santiagueña dulce como el mistol
              D7
mis sueños te sueñan
G7     F  C        G7   C
santiagueña de mi corazón

Intro

Lloran mis ojos por ti
lagrimas de pasión
si tu me desdeñas
santiagueña de mi corazón

Rezo tu nombre al partir
dejandome tu adios
tus manos pequeñas
santiagueña de mi corazón
Suggest correction
Give kudos to tab author, rate the tab!
1 2 3 4 5
comments
print report bad tab
guest
You may want to rate the tab now too:
select rating
Wanna post a correction for this tab? Suggest correction